Skip to content
Iron And Wine - Nak...
 
Notifications
Clear all

Iron And Wine - Naked As We Came

1 Posts
1 Users
0 Reactions
303 Views
(@dylan6776)
Estimable Member
Joined: 18 years ago
Posts: 124
Topic starter  

Hey, if anyone wants a lovely easy song to play, check this out! Especially if you're new to fingerpicking! Two Chords (C in second position, and Asus2...or is it Asus4? Although it is tabbed as A9! Anyway....) and a little bass run. Check it out on YouTube...

Iron and Wine: Naked as we came
================================

Capo II, Tune dropped D
Chords - D9: 054030, Em9: 20000X, A9: 002200
See below for picking patterns.

Intro: D9 E9 2x

D9 Em9
She says, "wake up, it's no use pretending"
D9 Em9
I'll keep stealing, breathing her
D9 Em9
birds are leaving over autumn's ending
D9 Em9 A9
one of us will die inside these arms
Em9 A9
eyes wide open,
Em9 A9
naked as we came
Em9 A9
one will spread our
Em9 D9
ashes around the yard

[intro chords again]

she says, "if I leave before you, darling,
don't you waste me in the ground"
I lay smiling like our sleeping children
one of us will die inside these arms
eyes wide open, naked as we came
one will spread our ashes around the yard
=====================================================================
D9 Em9
E|---------------------------------|---------------------------------|
B|-------3-------3-------3-------0-|-------0-------0-------0-------0-|
G|---0-------0-------0-------0-----|---0-------0-------0-------0-----|
D|-----4-------4-------4-------4---|-----0-------0-------0-------0---|
A|-5---------------0---------------|-----------------2-------0-------|
D|---------0---------------0-------|-2-------4-----------------------|

A9 Em9
E|---------------0-----------------|----------------------------------|
B|-------0-----------0---0-------0-|-------0-------0--------0-------0-|
G|---2-------2---------------2-----|---0-------0--------0-------0-----|
D|-----2-------2-------2-------2---|-----0-------0--------0-------0---|
A|-0-------0-------0-------0-------|------------------2-------0-------|
D|---------------------------------|-2-------4------------------------|

Never assume the other fellow has intelligence equal to yours. He may have more.


   
Quote