Skip to content
40 LICKS DISC 1-- F...
 
Notifications
Clear all

40 LICKS DISC 1-- First 10 Songs

17 Posts
10 Users
0 Reactions
1,778 Views
(@teleplayer324)
Noble Member
Joined: 19 years ago
Posts: 1506
Topic starter  



40 LICKS DISC 1-- First 10 Songs

STREET FIGHTING MAN- The Rolling Stones

TUNING: D A D F# A D

Intro and verse:
C F/C C
D --10-10----------------10-|10-------10----------10-|
A --10-10----------------10-|10-------10----------10-|
F#--10-10----------------11-|11-------11----------10-| repeat
D --10-10-10-10-10-10-10-10-|10-10-10-10-10-10-10-10-|
A --10-10-10-10-10-10-10-12-|12-12-12-12-12-12-12-10-|
D --10-10-10-10-10-10-10-10-|10-10-10-10-10-10-10-10-|

Everywhere I hear the sound of marching charging feet boy
Cos summer's here and the time is right for fighting in the street boy

CHORUS:
G Gsus9 G Gsus9
But what can a poor boy do
G Gsus9
Except to sing for a rock'n'roll band
G Gsus9 G Gsus9 G
Cos in sleepy London town there's just no place for
D
Street fighting man, no

Hey think the time is right for valorious revolution
But where I live the game to play is compromise solution
CHORUS

Hey so my name has caused disturbance
I shout and scream, I kill the King, I rail at all his servants
CHORUS
Get down!

Gimme Shelter

Rhythm Guitar Intro
C# B A
4
|-----------------|-----------------|-----------------|-----------------|
|-----7---7---6-7-|-----5---5---4-5-|-----4-2---4-2---|-4-2---4-2---4-2-|
|---6---8-----6-8-|---4---6-----4-6-|---2-----2-----2-|-4-2---4-2---4-2-|
|-6---------6-----|-4---------4-----|-2---------------|-----2-----2-----|
|-----------------|-----------------|-----------------|-----------------|
|-----------------|-----------------|-----------------|-----------------|

C# B A
8
|-----------------|-----------------|-----------------|-----------------|
|-----7---7-7-7-7-|-----5---5-5-5-5-|-----4-2---4-2---|-4-2-----4-2-4-2-|
|---6---8-8-8-8-8-|---4---6-6-6-6-6-|---2-4-2-2-4-2---|-4-2---2-4-2-4-2-|
|-6---------------|-4---------------|-2-------------2-|-----2-----------|
|-----------------|-----------------|-----------------|-----------------|
|-----------------|-----------------|-----------------|-----------------|

C# B A
12
|-----------------|-----------------|-----------------|-----------------|
|-----7---7-7-7-6-|-----5---5-5-5-4-|-----4-2---4-2---|-4-2-----4-2-4-2-|
|---6---8-8-8-8-6-|---4---6-6-6-6-4-|---2-4-2-2-4-2---|-4-2---2-4-2-4-2-|
|-6---------------|-4---------------|-2-------------2-|-----2-----------|
|-----------------|-----------------|-----------------|-----------------|
|-----------------|-----------------|-----------------|-----------------|

C# B A
16
|-----------------|-----------------|-----------------|-----------------|
|-6-7-7---9-7-6---|-4-5-5---7-5-4---|-----4-2---4-2---|-4-2-----2-4-2-2-|
|-6-8-8---8-8-6-6-|-4-6-6---6-6-4---|---2-4-2---4-2---|-4-2---2-2-4-2-2-|
|-------6---------|-------4-------4-|-2-------2-----2-|-----2-----------|
|-----------------|-----------------|-----------------|-----------------|
|-----------------|-----------------|-----------------|-----------------|

C# B A
20
|-----------------|-----------------|-----------------|-----------------|
|-----7---9-7-6---|-----5---7-5-4---|-----4-2---4-2---|-4-2-----2-4-4-2-|
|---6---8-8-8-6---|---4---6-6-6-4---|---2-4-2---4-2---|-4-2---2-2-4-4-2-|
|-6-------------6-|-4-------------4-|-2-------2-----2-|-----2-----------|
|-----------------|-----------------|-----------------|-----------------|
|-----------------|-----------------|-----------------|-----------------|

C# B A E A E A E B E B
24
|-----------------|-----------------|-----------------|-----------------|
|-----7---9-7-6---|-----5---7-5-4---|-----4-2---4-2---|-----------------|
|---6---8-8-8-6---|---4---6-6-6-4---|---2-4-2---4-2---|-----------------|
|-6-------------6-|-4-------------4-|-2-------2-----2-|-----------------|
|-----------------|-----------------|-----------------|---7---7---9---9-|
|-----------------|-----------------|-----------------|-0-5-0-5-0-7-0-7-|

Lead Guitar Intro
C# B A A
|-----------------|-----------------|-----------------|-------------9-9>|
|-----------------|-----------------|-----------------|-----------12----|
|-----------------|-----------------|-----------------|-----------------|
|-----------------|-----------------|-----------------|-----------------|
|-----------------|-----------------|-----------------|-----------------|
|-----------------|-----------------|-----------------|-----------------|

C# B A A
|>9---------9-----|-----------------|-----------------|-------------9-9>|
|------------12-9>|>9-----------9b10|-----------------|---9-------12----|
|-----------------|-----------------|-----------------|11---------------|
|-----------------|-----------------|-----------------|-----------------|
|-----------------|-----------------|-----------------|-----------------|
|-----------------|-----------------|-----------------|-----------------|

C# B A A
|>9---------------|-----------------|---9-------9-----|-------------9-9>|
|------------9b10-|-9b10r9----------|12------12-----9>|>9b10r9---12-----|
|-----------------|-----------------|-----------------|---------9-------|
|-----------------|-----------------|-----------------|-----------------|
|-----------------|-----------------|-----------------|-----------------|
|-----------------|-----------------|-----------------|-----------------|

C# B A A
|>9--------9------|-----------------|--------9--------|-----9------------|
|------------12-9>|b10r9------------|--12-------------|--12--12-9b10-9b10|
|-----------------|-----------------|-9---------------|-9----------------|
|-----------------|-----------------|-----------------|------------------|
|-----------------|-----------------|-----------------|------------------|
|-----------------|-----------------|-----------------|------------------|

C# B A A
|-----------------|-----------------|-9---------------|-----------9---9>|
|-9b10r9----------|-9---------9--12-|--12---------9---|-----9--12--12---|
|-----------------|--11---------9---|----------11-----|--11-------------|
|-----------------|-----------------|-----------------|-----------------|
|-----------------|-----------------|-----------------|-----------------|
|-----------------|-----------------|-----------------|-----------------|

C# B A A
|>9---------------|-9---------------|-----------------|---9-------------------|
|----------9---12-|---12----9b10----|-9b10------9---9-|12--12-------12--------|
|--------11--9----|-----------------|---------11--11--|-------9--11b13r11p9---|
|-----------------|-----------------|-----------------|------------------11-11|
|-----------------|-----------------|-----------------|-----------------------|
|-----------------|-----------------|-----------------|-----------------------|

Verse 1
C# (sus)
Ooh a storm is threatening my very life today
If I don't get some shelter, Oh yeah I'm gonna fade away

Chorus 1,2,4
C# B A E A E A E B E B
War, Children, It's just a shot away, It's just a shot away
C# B A E A E A E B E B C#
War, Children, It's just a shot away, It's just a shot away

Verse 2
Ooh, see the fire sweepin, our very streets today
Burn like a red coal carpet, Mad bull lost its way

Chorus 2
Solo
Chorus 3
(3 times)
C# B A E A E A E B E B
Rape, Murder, It's just a shot away, It's just a shot away

Verse 3
Mmm, the flood is threatening, my very life today
Gimme, Gimme Shelter, I'm gonna fade away

Chorus 4
Chorus 5
C# B A E A E A E B E B
Love, sister, It's just a kiss away, It's just a kiss away
It's just a kiss away, It's just a kiss away, kiss away, kiss away, yeah

Rhythm Guitar during verse
C#
|-----------------|-----------------|-----------------|-----------------|
|-----6-----6-----|-6---7---7-6---6>|>6---6-----6-----|-----7-----------|
|-----6-----6-----|-6---6---6-6---6>|>6---6-----6-----|-9-6-6-6-----6-4-|
|-----6-----6-----|-6---6---6-6---6>|>6---6-----6-----|-6-6-6-6-----6-4-|
|-----4-----4-----|-4---4---4-4---4>|>4---4-----4-----|-----------------|
|-----------------|-----------------|-----------------|-----------------|

C#
|-----------------|-----------------|-----------------|-----------------|
|-6---6-----6-----|-6---7-6-------6>|>6---6-----6-----|-----7-----------|
|-6---6-----6-----|-6---6-6-------6>|>6---6-----6-----|-9-6-6-6-----6-4-|
|-6---6-----6-----|-6---6-6-------6>|>6---6-----6-----|-6-6-6-6-----6-4-|
|-4---4-----4-----|-4---4-4-------4>|>4---4-----4-----|-----------------|
|-----------------|-----------------|-----------------|-----------------|

(3rd verse variation)
C#
|-----------------|-----------------|-----------------|-----------------|
|-----6-----6-----|-----7-6---------|-----6-----6-6---|-----7-6---------|
|-----6-----6-----|-9-6-8-6-----9-6-|>6---6-----6-6---|-9-6-8-6-----9-6-|
|-----6-----6-----|-6-6-6-6-----6-6-|>6---6-----6-6---|-6-6-6-6-----6-6-|
|-----4-----4-----|-----------------|-----------------|-----------------|
|-----------------|-----------------|-----------------|-----------------|

Rhythm Guitar Chorus
C# B A E A E A E B E B
|-----------------|-----------------|-----------------|-----------------|
|-----------------|-----------------|-----------------|-----------------|
|-6---6-666-6---6-|-4---4-444-4---4-|-2---2-222-2---2-|-----------------|
|-6---6-666-6---6-|-4---4-444-4---4-|-2---2-222-2---2-|-----------------|
|-4---4-444-4---4-|-2---2-222-2---2-|-0---0-000-0---0-|---7---7---9---9-|
|-----------------|-----------------|-----------------|-0-5-0-5-0-7-0-7-|

C# B A E A E A E B E B
|-----------------|-----------------|-----------------|-----------------|
|-6---6-667-6---6-|---------5-4-4-4-|---------3-2-2-2-|-----------------|
|-6---6-666-6---6-|-4---4-444-4-4-4-|-2---2-222-2-2-2-|-----------------|
|-6---6-666-6---6-|-4---4-444-4-4-4-|-2---2-222-2-2-2-|-----------------|
|-4---4-444-4---4-|-2---2-222-2-2-2-|-0---0-000-0-0-0-|---7---7---9---9-|
|-----------------|-----------------|-----------------|-0-5-0-5-0-7-0-7-|

Lead at end of Chorus 1
C#
|-----------------|-----------------|-----------------|----------------|
|-----------------|------12b14b14b14|b14r12-----9-----|----------------|
|-----------------|-----------------|------11-----11--|11b13r11--------|
|-----------------|-----------------|-----------------|---------9-11---|
|-----------------|-----------------|-----------------|----------------|
|-----------------|-----------------|-----------------|----------------|

Lead at end of Chorus 2
C#
|-----------------|-----------------|-----------------|----------------------|
|-----------------|-----------------|-----------------|---12-----------------|
|-----------------|-----------------|-------------9-11|b13--b13r11-9-11-9----|
|-----------------|------9----------|----11---9-11----|-------------------11>|
|-----------------|-9h11--11--------|-----------------|----------------------|
|-----------------|-----------------|-----------------|----------------------|

C#
|-----------------|-----------------|-----------------|----------------|
|-----------------|---12------------|--------12---12--|---12-----------|
|--------------11>|b13--b13r11-9----|---11b13--b13--11|b13---9---------|
|>11--------------|--------------11-|-----------------|---------11-----|
|-----------------|-----------------|-----------------|----------------|
|-----------------|-----------------|-----------------|----------------|

C# B A E A E A
E B E
|-----------------|-----------------|----9-----------------|------------------|
|-----------------|-----------------|----------------------|------------------|
|---11b13-9-------|-9---------9---9-|11b13-13r11-9-11-9-11-|b13b13b13b13r11-9-|
|----------11-9-11|--11-9-11---11---|----------------------|-------------11-11|
|-----------------|-----------------|----------------------|------------------|
|-----------------|-----------------|----------------------|------------------|

C# B A E A E A E
B E B
|-----------------|-----------------|-----------------|-----------------------|
|-----------------|-----------------|-----------------|-----------------------|
|-----------------|---------9-------|-----------------|-11b13b13b13b13r11-9---|
|>11vvvv----------|---9-11----11>>>>|>11vvvv----------|---------------------1-|
|-----------------|-----------------|-----------------|-----------------------|
|-----------------|-----------------|-----------------|-----------------------|

C# B A E A
E A E B E B
|-----------------|----------------------------|------------------|-----------|
|-----------------|12b14b14b14b14b14r12-12-----|------------------|-----------|
|-----------------|-----------------------11-9-|--------9-11-|b13-|----9-11b13|
|-11vvvv----------|----------------------------|-11vvv--9-11------|11--9-11---|
|-----------------|----------------------------|------------------|-----------|
|-----------------|----------------------------|------------------|-----------|

Leads are based on the C#m pentatonic scale (C# E F# G# B C#)

Satisfaction

INTRO :
E A
E+-------------------------------------+-------------------------------------+
B+-------------------------------------+-------------------------------------+
G+-------------------------------------+-------------------------------------+
D+-------------------------------------+-------------------------------------+
A+--2--2-----2--4---5--5-5p4---4(p2)---+--2--2----2--4--5---5--5p4----4(p2)--+
E+-------------------------------------+-------------------------------------+

E A E A
E+-------------------------------------+-------------------------------------+
B+-------------------------------------+-------------------------------------+
G+-------------------------------------+-------------------------------------+
D+-------------------------------------+-------------------------------------+
A+--2--2-----2--4---5--5-5p4---4(p2)---+--2--2----2--4--5---5--5p4----4(p)-2-+
E+-------------------------------------+-------------------------------------+

CHORUS :

E A
E+-------------------------------------+-------------------------------------+
B+-------------------------------------+-------------------------------------+
G+-------------------------------------+-----2------2--2--2------------------+
D+------------------------2------------+-------2-------------------2---------+
A+-----------------2---4------4--------+--0-------0--0--0---2---4-----4------+
E+-------------------------------------+-------------------------------------+

G+-------------------------------------+-------------------------------------+
D+-------------------------------------+--7---7-------7--7-------------------+
A+--7--7-----7--7------7--9---7--------+---------7----------7---7--9--7------+
E+--------7--------7-------------------+-------------------------------------+

I can't get no oo... Satisfaction onn ...

E A
E+-------------------------------------+-------------------------------------+
B+-------------------------------------+-------------------------------------+
G+---1------1-1-1----------------------+-----2------2--2--2------------------+
D+-----2--2---------------2------------+-------2-----------------------------+
A+-----------------2---4------4--------+--0-------0--0--0-------0--4--0------+
E+--0---0----0-0-----------------------+-------------------------------------+

G+-------------------------------------+-------------------------------------+
D+-------------------------------------+--7---7-------7--7-------------------+
A+--7--7-----7--7------7--9---7--------+---------7----------7---7--9--7------+
E+--------7--------7-------------------+-------------------------------------+

I can't get no oo... Satisfaction onn ...

E B E A
E+-------------------------------------+-------------------------------------+
B+-------------------------------------+-------------------------2-----------+
G+---1------1---2----------------------+------1--------1----2------------2---+
D+-----2--------2---------2--4p2-------+---2-----2---------------------2-----+
A+-------------------2h4----------4----+----------------------------0--------+
E+-0-----0-----------------------------+-----------0-------------------------+

cos I try, and I try and I try and I try a a, I can't

VERSE : the same patterns are repeated thoughout song

E A E A
E+-------------------------------------+-------------------------------------+
B+-------------------------------------+-------------------------------------+
G+-------------------------------------+-------------------------------------+
D+-------------------------------------+-------------------------------------+
A+--2--2-----2--4---5--5-5p4---4(p2)---+--2--2----2--4--5---5--5p4----4(p2)--+
E+-------------------------------------+-------------------------------------+
GET NO I can't GET NO when I'm
driving in my car and that man comes on the radio and he's
telling me more and more about some useless infor_mation supposed to

E A E A
E+-------------------------------------+-------------------------------------+
B+-------------------------------------+-------------------------------------+
G+-------------------------------------+-------------------------------------+
D+-------------------------------------+-------------------------------------+
A+--2--2-----2--4---5--5-5p4---4(p2)---+--2--2----2--4--5---5--5p4----4(p)-2-+
E+-------------------------------------+-------------------------------------+
fire my imagi_ nation I can't GET NO oh no no

E drums only

no ! eh hey hey ..

E A E A
E+-------------------------------------+-------------------------------------+
B+-------------------------------------+-------------------------------------+
G+-------------------------------------+-------------------------------------+
D+-------------------------------------+-------------------------------------+
A+--2--2-----2--4---5--5-5p4---4(p2)---+--2--2----2--4--5---5--5p4----4(p2)--+
E+-------------------------------------+-------------------------------------+

G+-------------------------------------+-------------------------------------+
D+------------------7--7-7-6-----------+----------------7---7---7-6----------+
A+--7----7---7--9-7------------9-------+--7----7--7--9-7--------------9------+
E+-------------------------------------+-------------------------------------+

hey That's what I say

When I'm watching my t.v.
And a man comes on and tells me
How white my shirts could be
But he - can't be a man cos' he doesn't smoke
The same cigarettes as me
I can't get no,
oh no no no.

When I'm riding around the world
And I'm doing this and I'm signing that
And I'm trying to meet some girl
Who tells me "Baby better come back maybe next week,
Cos you see I'm on a losing streak"
I can't get no,
oh no no no.

THE LAST TIME

intro:
lick1 1x (gtr1 with bridge pickup on)
E D A
e|-----------------------------------|
B|-------3------5---------3------2---|
G|----/4------4--------2h4-----/2----|
D|-----------------------------------|
A|-----------------------------------|
E|-----------------------------------|

[lick1 + (EDA) chord strums]4x
two guitars, gtr1(same as above) and gtr2 strumming chords over lick1

-->into verse(lick1 continues until chorus)

E D A EDA
Well I told you once and I told you twice

E D A EDA
But you never listen to my advice

E D A EDA
You don't try very hard to please me

E D A EDA
For what you know it should be easy

CHORUS (strum chords)

A D A
Well this could be the last time

A D A
This could be the last time

D A
Maybe the last time I don't know

lick1 w/EDA lick1 w/EDA
Oh no Oh no

E D A EDA
Well I'm sorry girl but I can't stay

E D A EDA
Feelin' like I do today

E D A EDA
Theres too much pain and too much sorrow

E D A EDA
Guess I'll feel the same tomorrow

CHORUS

Solo: ***SEE BELOW
E(12) D(10) A(9) E(12) lick2
|-2x
E(12) D(10) A(9) E(12) lick3/4/

CHORUS

E D A EDA
Well I told you once and I told you twice

E D A EDA
Some will have to pay the price

E D A EDA
Heres a chance to change your mind

E D A EDA
Cause I'll be gone a long, long time

CHORUS

E D A
Could be the last time ( Repeat ) No No No

---------------------------------------------------------
CHORDS:
E,D, and A in standard position except for Solo:

E(12)-12- D(10)-10- A(9)-9-----------------|
-12- -10- -10----------------|
-13- -11- -9-----------------|
-X-- -X-- -X-----------------|
-X-- -X-- -X-----------------|
-X-- -X-- -X-----------------|

Jumping Jack Flash

Intro:

Guitar 1
e--7---7---7-7---0---0--7---7-7--|
B--7---7---7-7---0---0--7---7-7--|
G--8---8---8-8---1---1--6---6-6--|
D--9---9---9-9---2---2--7---7-7--|
A--9---9---9-9---2---2--7---7-7--|
E--7---7---7-7---0---0--5---5-5--|

Guitar 2
e--------------------------------|
B--------------------------------|
G-----------------------2--------|
D----------------2------2--------|
A----------------2------0--------|
E----------------0---------------|

Guitar 1
e--7-----7-----7---0-----5-----5----|
B--7-----7-----7---0-----5-----5----|
G--8-8-8-8-8-8-8-8-1-1-1-6-6-6-6-6--| x2
D--9-9-9-9-9-9-9-9-2-2-2-7-7-7-7-7--|
A--9-9-9-9-9-9-9-9-2-2-2-7-7-7-7-7--|
E--7-7-7-7-7-7-7-7-0-0-0-5-5-5-5-5--|

Guitar 2
e-----------------------------------|
B-----------------------------------|
G--4---------------------2----------| x2
D--4---------------2-----2----------|
A--2---------------2-----0----------|
E------------------0----------------|

Guitar 1
e------------------7-7-------------7-7--------------|
B------------------7-7-------------7-7--------------|
G------------------8-8-------------8-8--------------|
D--9-9-9-9-9-9-9-9-9-9-9-9-9-9-9-9-9-9-9-9-9-9-9-9--|
A--9-9-9-9-9-9-9-9-9-9-9-9-9-9-9-9-9-9-9-9-9-9-9-9--|
E--7-7-7-7-7-7-7-7-7-7-7-7-7-7-7-7-7-7-7-7-7-7-7-7--|

Guitar 2
e---------------------------------------------------|
B-----------------4-4-4-----------4-4-4-------------|
G--4--------------4-4-4-----------4-4-4-------------|
D--4--------------4-4-4-----------4-4-4-------------|
A--2--------------2-2-2-----------2-2-2-------------|
E---------------------------------------------------|

Guitar 1 and 2
e------------------------------|
B------------------------------|
G--4--4-------2------2------2--| x2
D--4--4---2-4----2-4----2-4----|
A--2--2------------------------|
E------------------------------|

Verse 1: (Both)

e------------------------------------------------------------|
B------------------------------------------------------------|
G------4--4------2------2------2-4--4-------2------2------2--|
D------4--4--2-4----2-4----2-4---4--4---2-4----2-4----2-4----|
A------2--2----------------------2--2------------------------|
E------------------------------------------------------------|
"I was born in a cross fire hurricane"

e-----------------------------------------------------|
B-----------------------------------------------------|
G------4--4------2------2------2-4--4-------2------2--|
D------4--4--2-4----2-4----2-4---4--4---2-4----2-4----|
A------2--2----------------------2--2-----------------|
E-----------------------------------------------------|
"And I howled at ma in the driving rain"

Chorus: (Both)
(D) (A) (E) (B)
e--------14--12-------------------------------------------------------|
B---------------15--15----15--14-14--14----15--14----------15--14-----|
G---------------14--14-----------14--14-----------16--16----------16--|
D---------------0---0------------14--14-------------------------------|
A---------------------------------------------------------------------|
E---------------------------------------------------------------------|
"...All..............right..............now..., In fact, it's a gas!"

(D) (A) (E) (B)
e--------14--12------------------------------10------9-----7--|
B---------------15--15----12-14-12-14-12--------12-----12--7--|
G---------------14--14-------------------------------------8--|
D---------------0---0--------------------------------------9--|
A----------------------------------------------------------9--|
E----------------------------------------------------------7--|
"...All..............right............I'm Jumping...It's a gas, gas, gas"

Break:

Guitar 1

e--7-7-7--7--7---7--7-7-7--7--7--|
B--7-7-7--7--7---7--7-7-7--7--7--|
G--8-8-8--8--8---8--8-8-8--8--8--|
D--9-9-9--9--9---9--9-9-9--9--9--|
A--9-9-9--9--9---9--9-9-9--9--9--|
E--7-7-7--7--7---7--7-7-7--7--7--|

Guitar 2
e--7-7-7------------7-7-7--------|
B--7-7-7------------7-7-7--------|
G--8-8-8------------8-8-8--------|
D--9-9-9------------9-9-9--------|
A--------------------------------|
E--------------------------------|

Both
e------------------------------------------------------------|
B------------------------------------------------------------|
G------4--4------2------2------2-4--4-------2------2------2--|
D------4--4--2-4----2-4----2-4---4--4---2-4----2-4----2-4----|
A------2--2----------------------2--2------------------------|
E------------------------------------------------------------|

Verse 2: (Both)

e------------------------------------------------------------|
B------------------------------------------------------------|
G------4--4------2------2------2-4--4-------2------2------2--|
D------4--4--2-4----2-4----2-4---4--4---2-4----2-4----2-4----|
A------2--2----------------------2--2------------------------|
E------------------------------------------------------------|
"I was raised by a toothless, bearded hag"

e-----------------------------------------------------|
B-----------------------------------------------------|
G------4--4------2------2------2-4--4-------2------2--|
D------4--4--2-4----2-4----2-4---4--4---2-4----2-4----|
A------2--2----------------------2--2-----------------|
E-----------------------------------------------------|
"I was schooled with a strap right across my back"

Chorus x1

Guitar 1
e--7-7-7--7--7---7--7-7-7--7--7--|
B--7-7-7--7--7---7--7-7-7--7--7--|
G--8-8-8--8--8---8--8-8-8--8--8--| x3
D--9-9-9--9--9---9--9-9-9--9--9--|
A--9-9-9--9--9---9--9-9-9--9--9--|
E--7-7-7--7--7---7--7-7-7--7--7--|

Guitar 2
e--7-7-7------------7-7-7--------|
B--7-7-7------------7-7-7--------|
G--8-8-8------------8-8-8--------| x3
D--9-9-9------------9-9-9--------|
A--------------------------------|
E--------------------------------|

Break 2:

Guitar 1
e--2-----2----4-2---0--2-4--|
B----0-0----------0---------|
G---------------------------| x4
D---------------------------|
A---------------------------|
E---------------------------|

Guitar 2
e-------------------------------------------------------------------|
B-------------------------------------------------------------------|
G-------------------------------4--------------4--4--------------2--|
D-----------------------2---2-4-------4-6-2----4--4-----4-6-2--4----|
A------------------0--2-------------2----------2--2---2-------------|
E------------0-/2---------------------------------------------------|

e-----------------------------|
B-----------------------------|
G--4--4--------------2--4--4--|
D--4--4-----4-6-2--4----4--4--|
A--2--2---2-------------2--2--|
E-----------------------------|

Guitar 1
e--2--------2-4--|
B----0-0-0-------|
G----------------| x3
D----------------|
A----------------|
E----------------|

Guitar 2
e----------------|
B----------------|
G--4-4-4---------| x3
D--4-4-4---------|
A--2-2-2---------|
E----------------|

Both
e------------------------------------------------------------|
B------------------------------------------------------------|
G------4--4------2------2------2-4--4-------2------2------2--|
D------4--4--2-4----2-4----2-4---4--4---2-4----2-4----2-4----|
A------2--2----------------------2--2------------------------|
E------------------------------------------------------------|

Verse 3: (Both)

e------------------------------------------------------------|
B------------------------------------------------------------|
G------4--4------2------2------2-4--4-------2------2------2--|
D------4--4--2-4----2-4----2-4---4--4---2-4----2-4----2-4----|
A------2--2----------------------2--2------------------------|
E------------------------------------------------------------|
"I was drowned, I was washed up and left for dead"

e-------------------------------------------------------------|
B-------------------------------------------------------------|
G-------4--4------2------2------2-4--4-------2------2------2--|
D-------4--4--2-4----2-4----2-4---4--4---2-4----2-4----2-4----|
A-------2--2----------------------2--2------------------------|
E-------------------------------------------------------------|
"I fell down to my feet and I saw they bled"

e------------------------------------------------------------|
B------------------------------------------------------------|
G------4--4------2------2------2-4--4-------2------2------2--|
D------4--4--2-4----2-4----2-4---4--4---2-4----2-4----2-4----|
A------2--2----------------------2--2------------------------|
E------------------------------------------------------------|
"I frowned at the crumbs of a crust of bread"

e-----------------------------------------------------|
B-----------------------------------------------------|
G------4--4------2------2------2-4--4-------2------2--|
D------4--4--2-4----2-4----2-4---4--4---2-4----2-4----|
A------2--2----------------------2--2-----------------|
E-----------------------------------------------------|
"I was crowned with a spike right thru my head"

Chorus x1

Break:

Guitar 1

e--7-7-7--7--7---7--7-7-7--7--7--|
B--7-7-7--7--7---7--7-7-7--7--7--|
G--8-8-8--8--8---8--8-8-8--8--8--|
D--9-9-9--9--9---9--9-9-9--9--9--|
A--9-9-9--9--9---9--9-9-9--9--9--|
E--7-7-7--7--7---7--7-7-7--7--7--|

Guitar 2
e--7-7-7------------7-7-7--------|
B--7-7-7------------7-7-7--------|
G--8-8-8------------8-8-8--------|
D--9-9-9------------9-9-9--------|
A--------------------------------|
E--------------------------------|
Outro:

Both
e---------------------------------|
B---------------------------------|
G--4--4---------------------------| x4
D--4--4---------------------------|
A--2--2---------------------------|
E---------------------------------|
"Jumpin' Jack Flash, it's a gas!"

Guitar 2 (Guitar 1 just kinda strums around on with "B,E,A")
e-------------------12--12-10-9-7-9-7----------|
B----------------------------------------------|
G----------------------------------------------| x6 to fade
D----------------------------------------------|
A----------------------------------------------|
E----------------------------------------------|

You Can't Always Get What You Want

The Original Version of this was done in Open E
These Days Keef does it in Open G, and it can also be played in standard tuning
with no ill effects. This is the original Version done in Open E (EBEG#Be) with the
Capo on the 8th Fret.

Here is the Chord structure for those unfamiliar with Open Tunings

E B E G#B E
+ + + + + +
(C) E: 0 0 2 0 0 0
(F) A: 0 2 0 1 2 0
(D) F#: 2 2 2 2 2 2

Now that all the disclaimers are in place the song is simplicity itself, just
repeat those 3 chords over and over

After all that, the song itself is just pounding out
the chords:

C F C F...
C F
I saw her today at the reception
C F
A glass of wine in her hand
C F
I knew she was gonna meet her connection
C F
At her feet was a footloose man

Chorus:
C F
You can't always get what you want
C F
You can't always get what you want
C F
You can't always get what you want
D
But if you try sometimes,
F
You might find
C F C F
You get what you need... ahhhhhhh, yeah.....

I went down to the demonstration,
To get my fair share of abuse.
Singing "we're gonna vent our frustration,
And if we don't we're gonna blow a 50-amp fuse."

You can't always get what you want,
You can't always get what you want,
You can't always get what you want,
But if you try sometimes well you might find
You'll get what you need.

I went down to the Chelsea drugstore
To get your prescription filled.
I was standing in line with Mr. Jimmy,
And man, did he look pretty ill.
We decided that we would have a soda,
My favorite flavor, cherry red.
I sung my song to Mr. Jimmy,
And he said one word to me, and that was "dead,"
I said to him:

You can't always get what you want,
You can't always get what you want,
You can't always get what you want,
But if you try sometimes you just might find
You'll get what you need, ...oh yes

[instrumental]
You'll get what you need--yeah, oh baby.

I saw her today at the reception,
In her glass was a bleeding man.
She was practiced at the art of deception,
Well I could tell by her bloodstained hands.

You can't always get what you want,
You can't always get what you want,
You can't always get what you want,
But if you try sometimes you just might find
You just might find
You'll get what you need.

You can't always get what you want,
You can't always get what you want,
You can't always get what you want,
But if you try sometimes you just might find
You just might find
You'll get what you need.

19th NERVOUS BREAKDOWN

INTRO (RIFF 1): -- 2x's

E -----------------------------------------------|
B -------10--10---9-----------10--10---9---------|
G --------9---9---9--------9-------9---9---------|
D -----------------------------------------------|
A ---7-----------------7-------------------------|
E -----------------------------------------------|

VERSE 1:
E
You're the kind of person you meet
At certain dismal dull affairs.
A
Center of a crowd, talking much too loud
E
Running up and down the stairs.
A
Well it seems to me that you have seen
Too much in too few years.
E
And though you've tried you just can't hide
Your eyes are edged with tears.

CHORUS:
B Esus4 Esus4 E ; B Esus4 Esus4 E
You better stop,

(RIFF 2)
E ------------------------|
A B ------------------------|
Look around, G ---------7P5------------|
D --5H7-------------------|
A ------------------------|
E ------------------------|

E
Here it comes, here it comes,
A
Here it comes, here it comes.
E
Here comes your nine-teenth nervous breakdown.

VERSE 2:
When you were a child you were treated kind
But you were never brought up right.
You were always spoiled with a thousand toys
But still you cried all night.
Your mother who neglected you
Owes a million dollar tax.
And your father's still perfecting ways
Of making ceiling wax.

CHORUS:

BREAK:
B E
Oh, who's to blame, that girl's just insane.
A
Well nothing I do don't seem to work,
B
It only seems to make matters worse.
E
Oh please.

VERSE 3:
You were still in school when you had that fool
Who really messed your mind.
And after that you turned your back
On treating people kind.
On our first trip I tried so hard
To rearrange your mind.
But after a while I realized
You were disarranging mine.

CHORUS:

FIRST GUITAR: start with (RIFF 3) -- 3x's

(RIFF 3)
E ------------------------------------|
B ------------------------------------|
G ------------------------------------|
D ------9-----9------9---------9------|
A ---------9----------------9---------|
E ---7------------7------7------------|

2nd GUITAR : start INTRO (RIFF 1) last 2 times of FIRST GUITAR
playing (RIFF 3).

BREAK:

VERSE 2:

OUTRO CHORUS:
B Esus4 Esus4 E ; B Esus4 Esus4 E
You better stop,

A play (RIFF 2) once then (RIFF 3) -- 2x's
Look around,
A
Here it comes.
E
Here comes your nine-teenth nervous breakdown

*Here comes your nine-teenth nervous breakdown. *NOTE: use stacatto
*Here comes your nine-teenth nervous breakdown. type picking
*Here comes your nine-teenth nervous breakdown. running the
*Here comes your nine-teenth nervous breakdown. low E string
*Here comes your nine-teenth nervous breakdown. from the 7th
fret to the
1st fret.
(SURF SOUND
a la
DICK DALE)

FADE OUT:

Under My Thumb

Guitar 1: Electric Lead
Guitar 2: Acoustic Rhythym

Intro: (Guitar 1 only)

e----9----9-----7---7----5---5----5---5----|
B----10---10----9---9----7---7----7---7----|
G------------------------------------------| x2
D------------------------------------------|
A------------------------------------------|
E------------------------------------------|

Verse 1:

Guitar 1
e--------------------------------------------------------|
B--------------------------------------------------------|
G--------------------------------------------------------|
D--------------2---4-----2-------------------2---4--0-2--|
A----------------------------------------2/4-------------|
E--------------------------------------------------------|
"Under my thumb, the girl who once had me down"

e----------------------------------------------------|
B----------------------------------------------------|
G----------------------------------------------------|
D------------------------2---------------------------|
A----------------------------------------------------|
E----------------------------------------------------|
"Under my thumb, the girl who once pushed me around"

Guitar 2
F#m
Under my thumb,
E D
The girl who once had me down
F#m
Under my thumb,
E D
The girl who once pushed me around

Chorus 1:

Guitar 1
e--------------5----5---5--------------------------7---7--|
B--------------5----5---5--------------------------7---7--|
G--------------------------5-/7--x-------------7-8--------|
D------5--5/7--------------5-/7--x------------------------|
A--5/7----------------------------------------------------|
E---------------------------------------------------------|
"It's down to me... ...the difference in the clothes she wears"

[Chorus 1 lead ends]

Guitar 2
A
It's down to me
D Bm
The difference in the clothes she wears
F#m E
Down to me, the change has come,
D A
She's under my thumb

Break: (Guitar 1 Only)

e--5----5----------------5----5-------------|
B--5----5----------------5----5-------------|
G-------------------------------------------|
D--------------5--5/7-----------------5--7--|
A----------5/7--------------------5/7-------|
E-------------------------------------------|
"Ain't it the truth babe?"

Verse 2:

Guitar 1
e-----------------------------------------------------------------|
B-----------------------------------------------------------------|
G-----------------------------------------------------------------|
D--------------2---4----------2-------------------------2--4p2-2--|
A---------------------------------------------------2/4-----------|
E-----------------------------------------------------------------|
"Under my thumb, the squirmin' dog who's just had her day

e----------------------------------------------------|
B----------------------------------------------------|
G----------------------------------------------------|
D--------------------2-------------------------------|
A----------------2/4---------------------------------|
E----------------------------------------------------|
Under my thumb, a girl who has just changed her ways

Guitar 2
F#m
Under my thumb
E D
The squirmin' dog who's just had her day
F#m
Under my thumb
E D
A girl who has just changed her ways

Chorus 2:

Guitar 1
e-----------------------------5---5----------------------------7-----7--|
B-----------------------------5---5----------------------------7-----7--|
G------------------------5----6---------------7---7--------7-8---7-8----|
D----------------5--5/7-----7-----------------7---7---------------------|
A------------5/7--------------------------------------------------------|
E-----------------------------------------------------------------------|
"It's down to me... ...yes it is, the way she does just what she's told"

[Chorus 2 lead ends]

Guitar 2
A
It's down to me, yes it is
D Bm
The way she does just what she's told
F#m E
Down to me, the change has come
D A
She's under my thumb

Break:
e--5-------------------------------------------------5--|
B--5-------------------------------------------------5--|
G-------------------------------------------------------|
D----------------5----5/7----------5----5--5/7----------|
A------------5/7---------------5/7----7-----------------|
E-------------------------------------------------------|
"Ah, ah, say it's alright"

Verse 3:

Guitar 1
e-------------------------------------------------|
B-------------------------------------------------|
G-------------------------------------------------|
D-----------------2-2-------------------2--4p2----|
A-----------------------------------2/4--------4--|
E-------------------------------------------------|
"Under my thumb, a siamese cat of a girl

e----------------------------------------------------------|
B----------------------------------------------------------|
G----------------------------------------------------------|
D---------------------------2------------------------------|
A-----------------------2/4---------4----------------------|
E----------------------------------------------------------|
"Under my thumb, she's the sweetest, hmmm, pet in the world"

Guitar 2
F#m
Under my thumb,
E D
A siamese cat of a girl
F#m
Under my thumb,
E D
She's the sweetest, hmmm, pet in the world

Chorus 3:

Guitar 1
e---------------------------5---5--------------------------------------|
B---------------------------5---5--------------------------------------|
G---------------------------6---------7---7--------------7-8----7-8----|
D-----------------5--5/7--------------7---7------------------9------9--|
A-------------5/7------------------------------------------------------|
E----------------------------------------------------------------------|
"It's down to me... ...the way she talks when she's spoken to"

e------------5----------------------------------------|
B------------7----------------------------------------|
G-----------------------------------------------------|
D----------------------------2------------------------|
A-----------------------------------------------------|
E-----------------------------------------------------|
"Down to me, the change has come, she's under my thumb"

Guitar 2
A
It's down to me
D Bm
The way she talks when she's spoken to
F#m E
Down to me, the change has come,
D A
She's under my thumb

Break:
e--5----5------5----5-----------------5---5--|
B--5----5------5----5-----------------5---5--|
G--------------------------------------------|
D--------------------------5---5/7-----------|
A-----------------------(7)------------------|
E--------------------------------------------|
"Ah, take it easy babe"

Solo: (Guitar 2 plays verse chords with same rhythym)

e-----------------------------------------------------------------------|
B-----------------------------------------------------------------------|
G-----------------------------------------------------------------------|
D------2--2/4-------2-------------------------------------------2--2/4--|
A--2/4----------2/4---2p0-2p0-2--(0)--0-2-0-2/4-2--0--0-2-0-2/4---------|
E-----------------------------------------------------------------------|

e-------------------------------|
B-------------------------------|
G-------------------------------|
D------2---------------------2--|
A--2/4----/2---0---0-2-0-2/4----|
E-------------------------------|

Chorus 4:

Guitar 1
e---------------5--5------------------------------------------------------|
B---------------5--5------------------------------------------------------|
G--------------------6-x----------5b---------7---7-----------7-8---7-8----|
D----------------------x-/5--5/7-----7-------7---7---------------9-----9--|
A-------------------------------------------------------------------------|
E-------------------------------------------------------------------------|
"It's down to me,... ...oh yeah,....the way she talks when she's spoken to"

[Chorus 4 lead ends]

Guitar 2
A
It's down to me
D Bm
The way she talks when she's spoken to
F#m E
Down to me, the change has come,
D A
She's under my thumb

Break:
e--5--5------------------------------------|
B--5--5------------------------------------|
G-------6-x--------------------------------|
D---------x-/5---5/7----------5----5--5/7--|
A-------------------------5/7----7---------|
E------------------------------------------|
"Yeah, it feels alright"

Verse 4:

Guitar 1
e------------------------------------------------------
B------------------------------------------------------|
G---------------------------/2-------------------------|
D---------------------2---------2----------------------|
A-----------------(4)-------------4----------/4--2--0--|
E------------------------------------------------------|
"Under my thumb, her eyes are just kept to herself"

e------------------------------------------------------------------|
B------------------------------------------------------------------|
G------------------------------------------------------------------|
D------------------2--2/4----2-4p2p0-2-0---------------------------|
A--------------2/4---------------------------------------/4--2--0--|
E--
"Under my thumb,... ...well I, I can still look at someone else

Guitar 2
F#m
Under my thumb,
E D
Her eyes are just kept to herself
F#m E
Under my thumb, well I,
D
I can still look at someone else

Chorus 5:

Guitar 1
e------------------------------------------------------------------------|
B------------------------------------------------------------------------|
G---------------------------7b9--7--5--------7---7----------7-8---7-8----|
D-------------------5--5/7------------7------7---7--------------9-----9--|
A---------------5/7------------------------------------------------------|
E------------------------------------------------------------------------|
"It's down to me,... ...the way she talks when she's spoken to"

e--------------------------------------------------------------|
B--------------------------------------------------------------|
G--------------------------------------------------------------|
D--------------------------2---------------0-------------------|
A----------------0-2-0-2/4---------------------------0---------|
E--------------------------------------------------------------|
"Down to me,... ...the change has come, she's under my thumb"

Guitar 2:
A
It's down to me
D Bm
The way she talks when she's spoken to
F#m E
Down to me, the change has come,
D A
She's under my thumb

Outro:

e--5----5--------------5----5-------------------5---5---------------|
B--5----5--------------5----5-------------------5---5---------------|
G-------------------------------------------------------------------|
D-----------------5-----------------5-5/7-5/7----------------5------|
A-------------5/7---------------5/7----------------------5/7-----0--|
E-------------------------------------------------------------------|

e----5---5-------------------|
B----5---5-------------------|
G----------------------------| x6 to fade
D-----------------5-5---5-7--|
A------------5/7------7------|
E----------------------------|

Not Fade Away

Verse 1

E A/E D/A A/E
I want to tell you how it's gonna be

E A/E E
You're gonna give your love to me

A/E D/A A/E
I'm gonna love you night and day

Chorus

E A/E
Your love is love and not fade away

E A/E E
Oh well love is love and not fade away

Verse 2

Oh, my love is bigger than a Cadillac
I try to show it then you drive me back
Oh, your love for me has got to be real
For you to know just how I feel

Chorus

E A/E E A/E E
Love a-real and not fade a - way

A/E E
Oh well love is love and not fade a - way

Interlude

Verse 3

I'm gonna tell you how it's gonna be
Oh you're gonna give your love to me
Love to last more than one day

Chorus

Oh Well, love is love and not fade away
Oh well, love is love and not fade away
Well, love is love and not fade away
No, love is love and not fade away
Not fade away, not fade away

Sympathy For The Devil

REST=lead guitar rests during this bar

E D A E
Please allow me to introduce myself, I'm a man of wealth and taste

D A E
I've been around for long, long years I've stolen many a man's soul and faith

D A/C# A E
I was around when Jesus Christ had His moment of doubt and pain

D A/C# A E Esus4 E
I made damn sure that Pilate washed his hands and sealed his fate

B A E A/E E
Pleased to meet you, hope you guess my name,

B E/B B A E Esus4 E
but what's puzzling you, is the nature of my game

D A E
Stuck around St. Petersburg when I saw it was a time for a change

D A/C# A E
Killed the Tzar and his ministers; Anastasia screamed in vain

D A/C# A
I rode a tank held a general's rank when the blitzkrieg raged

E Esus4 E
and the bodies stank

B A E A/E E
Pleased to meet you, hope you guess my name, Oh yeah

B E/B B E A/E E
Ah what's puzzling you, is the nature of my game

E D A/C# A
E
I watched with glee while your kings and queens fought for ten decades for the
gods they made

Esus4 E D A/C# E
Esus4 E
I shouted out, "Who killed the Kennedys?" when after all it was you and me

D A/C# A E Esus E
Let me please introduce myself I'm a man of wealth and taste

D A/C# E
Esus4 E
And I laid traps for troubadours who get killed before they reached Bombay

B A E Esus4 E
Pleased to meet you, hope you guess my name, Oh yeah

B E/B B A E A/E E
But what's puzzling you, is the nature of my game Well get down

1st Solo
E A/E E D G/D D
|-----------12-----------------|------------------------------|
|-------------15p12------------|------------------------------|
|-------------------14Brp12----|------------------------------|
|--------------------------14~~|~~~~~~~~~~~~~~~~~~~~~~~~~~~~~~|
|------------------------------|------------------------------|
|------------------------------|------------------------------|

A/C# D/A A E7 A/E E
|-----------12-----------------|------------------------------|
|-------------15p12------------|------------------------------|
|-------------------14Brp12----|--------------------12-14-14B-|
|--------------------------14--|-----------------14-----------|
|------------------------------|------------------------------|
|------------------------------|------------------------------|

E7 A/E E D7 G/D D
|------------------------------|------------------------------|
|--------------------------15B-|------------------------------|
|--------------------12-14-----|----------REST----------------|
|-----------------14-----------|------------------------------|
|------------------------------|------------------------------|
|------------------------------|------------------------------|

A7/C# D/A A E7 A/E E
|-17B------17~~~~~~~~-15b------|------------------------------|
|------------------------------|-17~~~~~----------------------|
|------------------------------|------------------------------|
|------------------------------|------------------------------|
|------------------------------|------------------------------|
|------------------------------|------------------------------|

E7 A/E E D7 G/D D
|--17p15--17--17p15-17-15------|-------15-17--17B-r-15-17p15--|
|-------17-----------------17--|-15h17---------------------17-|
|------------------------------|------------------------------|
|------------------------------|------------------------------|
|------------------------------|------------------------------|
|------------------------------|------------------------------|

A7/C# D/A A E7 A/E E
|------17B--r17-17----15-17-15b|------------------------------|
|----17------------------------|----------------17~~~~~-------|
|------------------------------|------------------------------|
|------------------------------|------------------------------|
|------------------------------|------------------------------|
|------------------------------|------------------------------|

E7 A/E E D7 G/D D
|------------------------------|------------------------------|
|----------------17------------|------17----17-17-17----------|
|------------------------------|------------------------------|
|------------------------------|------------------------------|
|------------------------------|------------------------------|
|------------------------------|------------------------------|

A7/C# D/A A E7 A/E E
|------15-17-17b--17--15-17-15bb--------15-17-15p17p15--------|
|---17-------------------------|17-15-17----------------17-17~|
|------------------------------|------------------------------|
|------------------------------|------------------------------|
|------------------------------|------------------------------|
|------------------------------|------------------------------|

A/E E B E/B
Pleased to meet you
|------------------------------|------------------------------|
|~~~~~~~~~~~~~~~--17~~~~~------|------------------------------|
|------------------------------|------------------------------|
|------------------------------|-14p--------------------------|
|------------------------------|------------------------------|
|------------------------------|------------------------------|

B A E
hope you guessed my name

B E/B A E E/A E
But what's confusing you is just the nature of my game

D A/C# A E
Just as every cop is a criminal and all the sinners saints

A E D A/C# A E
As heads is tails just call me Lucifer 'cause I'm in need of some restraint

A E D A/C# A E
So if you meet me, have some courtesy have some sympathy and some taste

D A/C# A E Esus4 E
Use all your well-learned politesse or I'll lay your soul to waste

B E/B
Pleased to meet you Hope you guessed my name, um yeah

B A E A/E E
hope you guessed my name

B E/B A E E/A E
But what's puzzling you is just the nature of my game

E7 D A7/C# A E7

2nd solo
E
|------------------------------|------------------------------|
|------------------------------|------------------------------|
|----------REST----------------|----14Brp12-------------------|
|------------------------------|------------14----------------|
|------------------------------|------------------------------|
|------------------------------|------------------------------|

A/C#
|------------------------------|------------------------------|
|------------------------------|------------------------------|
|----14Brp12-------------------|----------REST----------------|
|------------14----------------|------------------------------|
|------------------------------|------------------------------|
|------------------------------|------------------------------|

D
|--12--------------------------|------------------------------|
|--12--------------------------|------------------------------|
|----14Brp12-------------------|-----12-14-14B--14-12-14-12---|
|------------14----------------|--14-----------------------14-|
|------------------------------|------------------------------|
|------------------------------|------------------------------|

A/C# A E
|------------------------------|------------------------------|
|------------------------------|------------------------------|
|----------REST----------------|----------REST----------------|
|------------------------------|------------------------------|
|------------------------------|------------------------------|
|------------------------------|------------------------------|

D
|----12--15--------------------|----12--15--------------------|
|----------15------------------|----------15------------------|
|-------------14Brp12----------|---------------12-------------|
|---------------------14-------|-------------------14---------|
|------------------------------|------------------------------|
|------------------------------|------------------------------|

A/C# A E
|----12--15--------------------|-------------------12------15B|
|----------15------------------|------------------------12----|
|-------------12bb-------------|------------------------------|
|------------------14--12------|-14p--------------------------|
|------------------------------|------------------------------|
|------------------------------|------------------------------|
D
|------------------------------|------------------------------|
|------------------------------|-----15B----------------------|
|----------REST----------------|------------------------------|
|---------

Immature? Of course I'm immature Einstein, I'm 50 and in a Rock and ROll band.

New Band site http://www.myspace.com/guidedbymonkeys


   
Quote
(@mattguitar_1567859575)
Noble Member
Joined: 20 years ago
Posts: 879
 

Don't take this as a critisism - you have put so much effort into this its a shame it doesn't line up. I had this problem all the time, so i can empathise with you on this!!

easy solution.

Do it all in Word. Set the font on the whole lot to Courier, 9 point.

when you're ready to insert the tab here, click on the "code" button above and a box will appear on the screen like this-
(code).

then paste your work immediately after the code. Then click on code again.

hey presto - its perfect.

thanks for your efforts - they are appreciated greatly

Matt


   
ReplyQuote
(@artlutherie)
Noble Member
Joined: 20 years ago
Posts: 1157
 

Oh and definately tab "Tip Toe Through the Tulips" :P for us! NOT!

Chuck Norris invented Kentucky Fried Chicken's famous secret recipe, with eleven herbs and spices. But nobody ever mentions the twelfth ingredient: Fear!
ChuckNorrisFactsdotCom


   
ReplyQuote
(@teleplayer324)
Noble Member
Joined: 19 years ago
Posts: 1506
Topic starter  

Don't take this as a critisism - you have put so much effort into this its a shame it doesn't line up. I had this problem all the time, so i can empathise with you on this!!

easy solution.

Do it all in Word. Set the font on the whole lot to Courier, 9 point.

when you're ready to insert the tab here, click on the "code" button above and a box will appear on the screen like this-
(code).

then paste your work immediately after the code. Then click on code again.

hey presto - its perfect.

thanks for your efforts - they are appreciated greatly

Matt
I did it in notepad in New Courier 9 pt. and did post it between the code tags. not sure why it did this

Okay I give up, I tried it in Courier 9 point in notepad didn't help, tried it in courier 9 pt. in word and it made it worse. If anyone wants the notepad text of this drop me a note and I'll e-mail it to you

Immature? Of course I'm immature Einstein, I'm 50 and in a Rock and ROll band.

New Band site http://www.myspace.com/guidedbymonkeys


   
ReplyQuote
(@vic-lewis-vl)
Illustrious Member
Joined: 20 years ago
Posts: 10264
 

Did you click on "Code" again at the end of the tabs?

Like Matt said, thanks for this, very much appreciated.....

:D :D :D

Vic

"Sometimes the beauty of music can help us all find strength to deal with all the curves life can throw us." (D. Hodge.)


   
ReplyQuote
(@teleplayer324)
Noble Member
Joined: 19 years ago
Posts: 1506
Topic starter  

Yeah I put the opening and ending code tags in. This is too fustrating. From now on I'll just post when I have some stuff and what it is and anyone who wants it can just drop me a note and I'll e-mail them the notepad file

Immature? Of course I'm immature Einstein, I'm 50 and in a Rock and ROll band.

New Band site http://www.myspace.com/guidedbymonkeys


   
ReplyQuote
(@rodders)
Noble Member
Joined: 20 years ago
Posts: 1086
 

Rod. :wink:

Be excellent to each other & party on dudes!
http://www.soundclick.com/bands/pagemusic.cfm?bandID=686668


   
ReplyQuote
(@teleplayer324)
Noble Member
Joined: 19 years ago
Posts: 1506
Topic starter  

If anyone wants the notepad file of this let me know and I'll e-mail it to you. I can't for the life of me figure why it's not posting correctly

Immature? Of course I'm immature Einstein, I'm 50 and in a Rock and ROll band.

New Band site http://www.myspace.com/guidedbymonkeys


   
ReplyQuote
(@steves)
Estimable Member
Joined: 20 years ago
Posts: 212
 

Tele - this is so awesome. I'll PM you as I definitely want the notepad version.

10 down, 30 to go :D

Steve


   
ReplyQuote
(@rjn24601)
Active Member
Joined: 18 years ago
Posts: 11
 

Fantastic! Street Fighting Man is one of my favorite songs!

Thanks for these!


   
ReplyQuote
(@teleplayer324)
Noble Member
Joined: 19 years ago
Posts: 1506
Topic starter  

Strange I took out the code and /code tags generated but the buttons and manually put them in and it fixed the tabs

Immature? Of course I'm immature Einstein, I'm 50 and in a Rock and ROll band.

New Band site http://www.myspace.com/guidedbymonkeys


   
ReplyQuote
(@rjn24601)
Active Member
Joined: 18 years ago
Posts: 11
 

Okay- I gotta ask- how do you play G and G sus9 in open D tuning (like in Street Fighting Man)?

I'm trying to figure it out. I know how to play G, but without knowing how to play G sus9 I can't figure out the best place to play the chord.


   
ReplyQuote
(@vic-lewis-vl)
Illustrious Member
Joined: 20 years ago
Posts: 10264
 

RJN, the G chord is easy enough - a barre across the 5th fret, 555555....

For the Gsus9.....technically is doesn't exist, but a Gsus2 is simply an inversion of Dsus4, which would be 000100

for the particular change though, try 555555 for the G and 557565 instead of the Gsus9.....

Hope this helps....

:D :D :D

Vic

"Sometimes the beauty of music can help us all find strength to deal with all the curves life can throw us." (D. Hodge.)


   
ReplyQuote
(@twistedlefty)
Famed Member
Joined: 20 years ago
Posts: 4113
 

Strange I took out the code and /code tags generated but the buttons and manually put them in and it fixed the tabs

knew that if i just waited a few days that you would sort this out :wink:
thanx for all the hard work and please keep them coming

#4491....


   
ReplyQuote
(@teleplayer324)
Noble Member
Joined: 19 years ago
Posts: 1506
Topic starter  

Strange I took out the code and /code tags generated but the buttons and manually put them in and it fixed the tabs

knew that if i just waited a few days that you would sort this out :wink:
thanx for all the hard work and please keep them coming

LOL, I would have just sent you the notepad file. Anyway I will try to get the next 10 from disc 1 posted sometime next week

Immature? Of course I'm immature Einstein, I'm 50 and in a Rock and ROll band.

New Band site http://www.myspace.com/guidedbymonkeys


   
ReplyQuote
Page 1 / 2