Skip to content
Awake ~ Godsmack
 
Notifications
Clear all

Awake ~ Godsmack

1 Posts
1 Users
0 Reactions
679 Views
(@marshall)
Trusted Member
Joined: 20 years ago
Posts: 52
Topic starter  

TUNING: Tuned down a whole step (two frets), drop-C
C,G,C,F,A,D

KEY:
(T) = Tremelo Picking - pick back and forth as fast as hell
^ = bend up (the number of how far to bend will follow -eg: 12^1
> = bend down
~~~ = vibrato -wiggle the string
(P) = pull off
(H) = hammer on
* = harmonics
PM'''= palm muting
/ = slide up
= slide down
x = left hand palm mute

INTRO: x2
Guitar 1: (distortion)
|-----------------------------------|
|--3----3----3--3-------------------|
|--2----2----2--2---3---------------|
|--0----0----0--0---3----1---1------|
|--0----0----0--0---1----1---1------|
|--0----0----0--0--------1---1------|

Intro 2: x2
Guitar 2: (distortion & wah pedal)
These are the chords used. Listen to the song to see how many
times to play them.
|------------------------|
|------------------------|
|--7----3----8-----------|
|--X----X----X-----------|
|--5----1----6-----------|
|------------------------|

Guitars 1&2:

|-----------------| x3 |---------------------------|
|-----------------| |----------------------8----|
|-----------------| |----------------12----x----|
|-0---0---0-0-----| the play: |-0----0---0-----x--or-5----|
|-0---0---0-0-----| |-0----0---0-----10---------|
|-0---0---0-0-----| |-0----0---0----------------|

Guitars 1&2: x1
|-------------------------------------------------------------------|
|-------------------------------------------------------------------|
|--------------7-7-7-8-8-8-8----------------7-7-7-10-10-10-10-------|
|--0--0--0-0---x-x-x-x-x-x-x---0--0--0-0----x-x-x--x--x--x--x-------|
|--0--0--0-0---5-5-5-6-6-6-6---0--0--0-0----5-5-5--8--8--8--8-------|
|--0--0--0-0-------------------0--0--0-0----------------------------|
(--- play this 3 times --) (- then play this once -----)

Guitars 1&2: x1
|----------------------------------------------------------------|
|----------------------------------------------------------------|
|---------------7-7-7-8-8-8-8---------------7-7-7-8-8-8-8-10-----|
|--0--0--0-0----x-x-x-x-x-x-x---0--0--0-0---x-x-x-x--x--x-x------|
|--0--0--0-0----5-5-5-6-6-6-6-- 0--0--0-0---5-5-5-6-6-6-6-8------|
|--0--0--0-0--------------------0--0--0-0------------------------|
(--- play this 3 times --) (- then play this once -----)

Guitars 1&2: x2
|------------------------------------------------|
|------------------------------------------------|
|-----------------------------------3--3---------|
|--0---0------0---0-----0---0----8--3--3---------|
|--0---0------0---0-----0---0----8--1--1---------|
|--0---0------0---0-----0---0----8---------------|

Then intro 1: x2
Then intro 2: x2
Then everything else
Then intro 1: x4
Then intro 2: x4

Guitars 1&2: x3
|---------------------------------------------|
|---------------------------------------------|
|---------------------------------------------|
|---------------------------------------------|
|---------------------------------------------|
|--0-0-0-0---0-0-0-0-0---0-0------------------|
PM........ ......... ...

Then: Listen to song to see how many times to repeat
|---------------------------------------------|
|---------------------------------------------|
|---------------------------------------------|
|-0-0-0-0----0-0-0-0-0----0-0-----------------|
|-0-0-0-0----0-0-0-0-0----0-0-----------------|
|-0-0-0-0----0-0-0-0-0----0-0-----------------|
PM....... ......... ...

Solo:

Guitar 2: (using wah pedal)
|----------------------------------------|
|----------------------------------------|
|--7(T)----5(T)--8(T)--5(T)--7(T)--------|
|----------------------------------6(T)--|
|----------------------------------------|
|----------------------------------------|

|---------------------------------10(T)--|
|----------------------------------9(T)--|
|--7(T)----5(T)--8(T)--5(T)--7(T)--------|
|----------------------------------------|
|----------------------------------------|
|----------------------------------------|

|--------------------------------------------------|
|-----------------------------------10-13-10--10---|
|--12^1>12(P)10-12^1~~~~12^1/2--12^1--------12-----|
|--------------------------------------------------|
|--------------------------------------------------|
|--------------------------------------------------|

|-------------10----------------------------------|
|--10-13-10---------------------------------------|
|-----------13---13-12-13(P)12(P)10---10(H)12^1---|
|-----------------------------------12------------|
|-------------------------------------------------|
|-------------------------------------------------|

|-------------------------------13^1---13^1.5>13--|
|--10---------------------------------------------|
|----13-12-10---10-12^1--10~~~--------------------|
|-------------12----------------------------------|
|-------------------------------------------------|
|-------------------------------------------------|

|--10-------------------------------10-----10-----13-------15^1--15^1>15(P)13------|
|----13-10-----------------------/13--13-12--13/15--15(P)13------------------15~~~~|
|---------13-12-10--10-12^1/2--10--------------------------------------------------|
|-----------------12---------------------------------------------------------------|
|----------------------------------------------------------------------------------|
|----------------------------------------------------------------------------------|

Repeat the chorus, then . . .

OUTRO:
Guitars 1&2:
|---------------------------------|
|---------------------------------| repeat
|---------------------------------| 4 times
|--0-0-0-0---0-0-0-0-0---0-0------|
|--0-0-0-0---0-0-0-0-0---0-0------|
|--0-0-0-0---0-0-0-0-0---0-0------|
PM........ ......... ...

All you know about me is what I've sold you. I sold out long before you ever heard my name.
I sold my soul to make a record, Dip sh#t, And you bought one. ~Maynard James Keenan~


   
Quote