Skip to content
Black Magic Woman-S...
 
Notifications
Clear all

Black Magic Woman-Santana.


(@preacher)
Estimable Member
Joined: 14 years ago
Posts: 128
Topic starter  

Black Magic Woman-Santana.
Well, this is the way I play it.

E--------------------------------------------------------------------------------------------------
B------------------------------------------------------------10-----------------------------------10----------------------------
G--10b(12)rb10-7-7/97~~-10h12p10~~-7-7/97~~------12-10p9~------12-10-97~-------12-109--

E----------------------10--------10----10---------------------------------------
B-------------------10--------------13----13-10-13b(15)rb13p10---13b(15)~~------
G--12-10-9-------10------------------------------------------------------------
D-------------12------------------------------
D----------12---------------------------------
E-------------------------------------------

E-10--------------------------------------12-13-12h13p12------------------------------
B----13-10-----------------------10-13------------------------13b(15)rb13p10----13b(15)----
G----------12b(14)rb12p109~~-----------------------------------------------------------------
rake
E--10------------------------------------------------12/13-13/15~~-15b(17)rb15p13------
B-----13p10--------------------------------------13--------------------------------------15--
G-----------12b(14)rb12p10h12~~----------14-------------------------------------
D--------------------------------------------14----------------------------------------

E-13~~-19b(20)~~--10-----------------------------------------------------------
B-------------------------------------------------------------------------------
G--------------------------12b(14)rb12p10----10h12------------------------------------
D--------------------------------------------12-----------10h12p10----10------------------
A-------------------------------------------------------12------------12----12p108-10-8-----
E-----------------------------------------------------------------------------

E---------10---------------------------------------------------
B---------10---------------------------------------------------
G---------10---------------------------------------------------
D---------12-----------------------------------------------------
A---------12----------------------------------------------------
E--10-8/10--------------------------------------------------------

(organ solo)

Dm
Got a black magic woman
Am
Got a black magic woman
Dm
Yes i've got a black magic woman
Gm
Got me so blind i can't see
Dm
That she's a black magic woman
Am Dm
Got the devil on me

Solo

E-------------10--------------------13h12-10------------------------------------------------12~~h13p12-
B---13b(14)----13b(15)rb13p10-------------(15)rb13p10-------------------------10p13-----------
G--------------------------------------------------------------(14)rb12h109--9/10-----------------

E----------13b(15)-15b(17)rb15p13h15b(17)-13~~--19b(20)~~------12p13h12---12p13h12--
B-13b(15)---------------------------------------------------------------13-----------
G------------------------------------------------------------------------------

E-----------10-------------------------------------------------------------------
B-13b(15)----13p10-----------------------10--10-13p10-----------------13b(15)-15b(17)---
G---------------------12b(14)rb12p10--10------------------(14)rb12p10---------------------
D---------------------------------12--------------------------------------------

E-------------------------------10------------------------------------------------
B-13b(15)~~~-----------------13b(14)---13p10--------------------------------13b(15)-13b(15)~~
G-----------(14)rb12b(14)~~---------------------12b(14)rb12p109~----14-------------------
D---------------------------------------------------------------------------14---------------------

E-------------10---------------------------10-12-13b(15)~~-15b(17)-19b(20)-20b(22)----
B-(15)rb13p10-13b(15)---------------11--------------------------------------------
G-------------------------10-10~~--12----------------------------------------------

E-------------10-----10---------10-13p10h13p10--------------------------------------
B-----10h13---10h13---10h13--------------------13p10h13p10---------------------------
G-12^--------------------------------------------------------------12p10h12p10---------------
D------------------------------------------------------------------------------------12p10-12------

E----------------------------------------------------------
B----------------------------------------------------------
G---------------------9--10~~------------------------------
D------------10--12----------------------------------------
A-10-11-12-------------------------------------------------
E----------------------------------------------------------
Then you repeat the chords with the next verse.

I play the guitar, I taught myself how to play the guitar, which was a bad decision... because I didn't know how to play it, so I was a sh***y teacher. I would never have went to me. -Mitch Hedberg


Quote
(@vic-lewis-vl)
Illustrious Member
Joined: 18 years ago
Posts: 10340
 

Nice job, Preacher. I'm betting you had to edit that tab a fair few times, though....you may find it easier in the future to use notepad (or Word, or whatever you use) to write the tab out, then click on the "code" button and paste it inside the brackets.

Thanks for your contribution!

:D :D :D

Vic

"Sometimes the beauty of music can help us all find strength to deal with all the curves life can throw us." (D. Hodge.)


ReplyQuote