Skip to content

Forum

Come as u are ( FRE...
 
Notifications
Clear all

Come as u are ( FREAKIN EASY )


(@rockboy_155)
Active Member
Joined: 18 years ago
Posts: 13
Topic starter  

1----------------------------------------------------------------------------
2----------------------------------------------------------------------------
3----------------------------------------------------------------------------
4----------------------------------------------------------------------------
5-----------------0-----0-------------------2----------2-------------------
6--0--0---1---2-----2----2---2---1----0-----0---0-----------------------

- "the whole world is a gimmic"

Rockboy_155


Quote
(@wes-inman)
Illustrious Member
Joined: 18 years ago
Posts: 5599
 

Thanks Rockboy

I'm gonna try this riff in the morning.

Keep tabbing!

Wes

If you know something better than Rock and Roll, I'd like to hear it - Jerry Lee Lewis


ReplyQuote
(@mordeth)
Estimable Member
Joined: 19 years ago
Posts: 127
 

note: when you repeat this riff, only play the open e at the start once.

great song, but really difficult to play and sing along with :)

This is my signature. Fear it.


ReplyQuote
(@blazedphool)
Eminent Member
Joined: 18 years ago
Posts: 49
 

omg yes it is so difficult to sing along to....this was the first riff i learned and i still cant sing along to it.....very very sad and frustrating.... :x i dunno maybe i just suck lol

" We are the music makers, and we are the dreamers of the dreams." - Willy Wonka


ReplyQuote
(@silenus)
Eminent Member
Joined: 18 years ago
Posts: 32
 

I'm also working oni that one (timing )
and found these extra's on the net

mem - o - ri
|----------------------0------0-----0----0-----|
|----------------------0------0-----0----0-----|
|----------------------1------1-----1----1-----|
|----------------------2------2-----2----2-----|
|---------2------------------------------------|
|----0---------0-------------------------------|

Pre-chorus
- a mem - o - ri
|------2-----------------------------------------------------|
|o-----2------------------2---2---2---2------2---2---2---2--o|
|------4------------------2---2---2---2------2---2---2---2---|
|--4-------4----4---------2---2---2---2------2---2---2---2---| X2
|o-4-------4----4---------0---0---0---0------0---0---0---0--o|
|--2-------2----2--------------------------------------------|

Chorus.- F#(244xx) Bm(799xxx)or (x244xx) Dadd9(x57755)
first a slide from F# to Bm

Bm Dadd9 Bm Dadd9
And I swear that I don't have a gun.
Bm Dadd9
No, I don't have a gun
Bm Dadd9
No, I don't have a gun

Enjoy

P.S.: chords above text are a bit of place...


ReplyQuote
(@deadat27)
Trusted Member
Joined: 18 years ago
Posts: 55
 

My first riff I ever learned to play was this one.

I suggest you guys play this riff on the lower strings B and e. It sounds pretty good or even better when you play it fast.

Here's the whole song I found on the net:

NIRVANA - Come As You Are

Nevermind version: A whole step down
Unplugged version: 1/2 step down

Main riff:
|-----|-----------------------------|
|-----|-----------------------------|
|-----|-----------------------------|
|-----|-----------------------------|
|-----|-----0---0---------2-----2---|
|-0-0-|-1-2---2---2-2-1-0---0-0---0-|

"Memoria..."
|--------|
|--------|
|-----2--|
|--4--2--|
|--4--0--|
|--2-----|

"And I swear that I don't have a gun..."
|--------|
|--------|
|--4--7--|
|--4--7--|
|--2--5--|
|--------|

Solo:
|-------------------------------------------------|
|-------------------------------------------------|
|--6--9-116--6--9-116--6--9-11-11/13-1311-11-9-|
|-------------------------------------------------|
|-------------------------------------------------|
|-------------------------------------------------|

= Slide Down
/ = Slide Up

Lyrics:

Come as you are, as you were
As I want you to be
As a friend, as a friend, as an old enemy
Take your time, hurry up
Choice is yours, don't be late
Take a rest, as a friend, as an old memoria

Come dowsed in mud, soaked in bleach
As I want you to be
As a trend, as a friend, as an old memoria

And I swear that I don't have a gun
No I don't have a gun


ReplyQuote