Skip to content
Dream On-Aerosmith
 
Notifications
Clear all

Dream On-Aerosmith

3 Posts
3 Users
0 Likes
686 Views
(@dagwood)
Noble Member
Joined: 19 years ago
Posts: 1024
Topic starter  

Ok I'm gonna try this:'
Dream On

Aerosmith
Guitar I

Fm/C Cm Dm7b5/C DbM7b5/C
E E E E E E E E Q E E E E E E
E||--4-------4-----3-----3-----|--4-------4-----3-----------3-----|
B||--6-------6-----4-----4-----|--3-------3-----2-----------2-----|
G||-------5-----5-----5-----5--|-------------5-----------5-----5--|
D||----------------------------|----------------------------------|
A||----------------------------|----------------------------------|
E||----------------------------|----------------------------------|

Fm/C F5/C
E E E E E E E E E E E E H
--4-------4-----6-----6-----|--8-------8-----8--------|
--6-------6-----6-----6-----|--6-------6-----6--------|
-------5-----5-----5-----5--|-------5-----5-----------|
----------------------------|-------------------------|
----------------------------|-------------------------|
----------------------------|-------------------------|

Fm/C Cm Dm7b5/C DbM7b5/C
E E E E E E E E Q E E E E E E
--4-------4-----3-----3-----|--4-------4-----3-----------3-----|
--6-------6-----4-----4-----|--3-------3-----2-----------2-----|
-------5-----5-----5-----5--|-------------5-----------5-----5--|
----------------------------|----------------------------------|
----------------------------|----------------------------------|
----------------------------|----------------------------------|

Fm/C F5/C Fsus4/C Fm/C Fsus4/C
E E E E E E E E Q Q E Q E
--4-------4-----6-----6-----|--8----8S----6-------4------------|
--6-------6-----6-----6-----|--6----6S----6-------6----6-------|
-------5-----5-----5-----5--|----------------------------------|
----------------------------|----------------------------------|
----------------------------|----------------------------------|
----------------------------|----------------------------------|

Fm/Ab Fsus4
Q Q E Q E E E E E E E E E
-------8-----8S--6--------|--------------------------|
--9----9-----9S--6-----6--|--------------------------|
--------------------------|--6--5--6--5--6--5--6--5--|
--------------------------|--------------------------|
--------------------------|--------------------------|
--------------------------|--------------------------|

S S S S S S S S S S S S S S T T S
-------------------------------------------------|
---------------5h-6S-8-6h-8S-9-8h-9S-11-9h-11p-9-|
--6p-5S-3-5S-6-----------------------------------|
-------------------------------------------------|
-------------------------------------------------|
-------------------------------------------------|

T T T T T T T T T T T T S S Q S E.
-----------------------------------------------------|
--8h-9p-8S-6-6h-8p-6S-4-4h-6p-4S-2-2p-1S-13----L-----|
-----------------------------------------------------|
-----------------------------------------------------|
-----------------------------------------------------|
-----------------------------------------------------|

Fm/C Cm Dm7b5/C DbM7b5/C
E E E E E E E E Q E E E E E E
--4-------4-----3-----3-----|--4-------4-----3-----------3-----|
--6-------6-----4-----4-----|--3-------3-----2-----------2-----|
-------5-----5-----5-----5--|-------------x-----------5-----5--|
----------------------------|----------------------------------|
----------------------------|----------------------------------|
----------------------------|----------------------------------|

Fm/C Cm Dm7b5/C DbM7b5/C
E E E E E E E E E E E E E E E E
--4-------4-----3-----3-----|--4----------4-----3-----------3-----|
--6-------6-----4-----4-----|--3----------3-----2-----------2-----|
-------5-----5-----5-----5--|----------5-----5-----------5-----5--|
----------------------------|-------------------------------------|
----------------------------|-------------------------------------|
----------------------------|-------------------------------------|

Fm/C Cm Dm7b5/C DbM7b5/C
E E E E E E E E Q Q E E E E
--4-------4-----3-----3-----|--4-------4----3-----------3-----|
--6-------6-----4-----4-----|--3-------3----2-----------2-----|
-------5-----5-----5-----5--|------------------------5-----5--|
----------------------------|---------------------------------|
----------------------------|---------------------------------|
----------------------------|---------------------------------|

Fm/C Cm Dm7b5/C DbM7b5/C
E E E E E E E E E E E E E E E E
--4-------4-----3-----3-----|--4----------4-----3-----------3-----|
--6-------6-----4-----4-----|--3----------3-----2-----------2-----|
-------5-----5-----5-----5--|----------5-----5-----------5-----5--|
----------------------------|-------------------------------------|
----------------------------|-------------------------------------|
----------------------------|-------------------------------------|

Fm/C Csus4 C Fm/C Csus4
E E E E E E E E E E E E E E E E
--4-------4-----3--------3-----|--4-------4-----3--------3-----|
--6-------6-----6--------5-----|--6-------6-----6--------6-----|
-------5-----5--------5-----5--|-------5-----5--------5-----5--|
-------------------------------|-------------------------------|
-------------------------------|-------------------------------|
-------------------------------|-------------------------------|

E E E E E E E E E E E E E E E E
--------------------------|--------------------------|
--------------------------|--------------------------|
--6--5--6--5--6--5--6--5--|--6--5--6--5--6--5--6--5--|
--------------------------|--------------------------|
--------------------------|--------------------------|
--------------------------|--------------------------|

F5 Eb5 Ebsus2 Db5 Eb5 Ebsus2
Q. E Q. E Q. E Q. E
-----------------------------|---------------------------|
-----------------------------|---------------------------|
--10------10S----------------|---------------------------|
--10------10S--8------8S-----|--6------6S--8------8------|
---8-------8S--6------6S-----|--4------4S--6------6------|
-----------------------------|---------------------------|

F5 Eb5 Ebsus2 Db5 Ebsus2
E Q E Q. E Q. E E Q E
------------------------------|--------------------------|
------------------------------|----------------6---------|
------------------------------|----------------8---------|
--10-------10S--8------8S-----|--6------6S--8---------8--|
------8-----8S--6------6S-----|--4------4S--6------------|
------------------------------|--------------------------|

Fm/C Cm Dm7b5/C DbM7b5/C
E E E E E E E E Q E E S S S S S S S S
--4-------4-----3-----3-----|--4-------4------------------------------|
--6-------6-----4-----4-----|--3-------3------------------------------|
-------5-----5-----5-----5--|-------------5----------------------1----|
----------------------------|--------------------------------------3~-|
----------------------------|-----------------------------1-2h-3------|
----------------------------|----------------1--------3-4-------------|

Fm/C Cm
W W E E E E E E E E
-------------------|-------------------|--4-------4-----3-----3-----|
-------------------|-------------------|--6-------6-----4-----4-----|
-------------------|-------------------|-------5-----5-----5-----5--|
--L----------------|--L----------------|----------------------------|
-------------------|-------------------|----------------------------|
-------------------|-------------------|----------------------------|

Dm7b5/C DbM7b5/C Fm/C Cm
Q E E E E E E E E E E E E E E
--4-------4-----3-----------3-----|--4-------4-----3-----3-----|
--3-------3-----2-----------2-----|--6-------6-----4-----4-----|
-------------x-----------5-----5--|-------5-----5-----5-----5--|
----------------------------------|----------------------------|
----------------------------------|----------------------------|
----------------------------------|----------------------------|

Dm7b5/C DbM7b5/C Fm/C Cm
E E E E E E E E E E E E E E E E
--4----------4-----3-----------3-----|--4-------4-----3-----3-----|
--3----------3-----2-----------2-----|--6-------6-----4-----4-----|
----------5-----5-----------5-----5--|-------5-----5-----5-----5--|
-------------------------------------|----------------------------|
-------------------------------------|----------------------------|
-------------------------------------|----------------------------|

Dm7b5/C DbM7b5/C Fm/C Cm
Q Q E E E E E E E E E E E E
--4-------4----3-----------3-----|--4-------4-----3-----3-----|
--3-------3----2-----------2-----|--6-------6-----4-----4-----|
------------------------5-----5--|-------5-----5-----5-----5--|
---------------------------------|----------------------------|
---------------------------------|----------------------------|
---------------------------------|----------------------------|

Dm7b5/C DbM7b5/C F5 Eb5 Ebsus2
E E E E E E E E Q Q E E Q
--4----------4-----3-----------3-----|----------------------6S-----|
--3----------3-----2-----------2-----|----------------------6S-----|
----------5-----5-----------5-----5--|--10----10S----8------8S-----|
-------------------------------------|--10----10S----8------8S-----|
-------------------------------------|---8-----8S----6---6--6S-----|
-------------------------------------|-----------------------------|

Db5 Db Eb5 Ebsus2
E E E E E E Q S S S S Q S S S S Q
----------------------6S-----|------------------------------|
---------6------------6S-----|------------------------------|
--6------6--6--8------8S-----|--5-------------5-------------|
--6------6--6--8------8S-----|----3-3-3-3~------5-5-5-5~----|
--4---4--4--4--6---6--6S-----|------------------------------|
-----------------------------|------------------------------|

S S S S Q S S S S E. S E E E E E E E E
-------------------------------|--------------------------|
-------------------------------|--------------------------|
--5-------------5-3-3-3-3~---x-|--6--5--6--5--6--5--6--5--|
----6-6-6-6~-------------------|--------------------------|
-------------------------------|--------------------------|
-------------------------------|--------------------------|

Fm/C Fsus4/C
E E E E E E E E S S S S S S S S S S S S S S S S
--------------------------|-------4-----4-----6-----------6-----6-----|
--------------------------|---------6-----6-----------6-----6-----6---|
--6--5--6--5--6--5--6--5--|--5--------5-----5-----------5-----5-----5-|
--------------------------|-------------------------------------------|
--------------------------|-------------------------------------------|
--------------------------|-------------------------------------------|

F5/C Bb F5
S S S S S S S S Q. E E S S S E. S E S S E S
--8--------8-----8S-13-13~---------|--8----8-L-------8-----------|
-------6-----6---------------------|-----6-----6---6----6-L-6----|
---------5-----5-------------------|---------------------------5-|
-----------------------------------|-----------------------------|
-----------------------------------|-----------------------------|
-----------------------------------|-----------------------------|

Fm/C Fsus4/C
E S S S E S H S S E S S S S S S S S S S S S
-------8-L----------------|-------4----4-----4-----6-----------6-----|
--6--6-----8--8b-L--------|--------------6-----6-----------------6---|
--------------------------|--5-------------5-----5-----------5-----5-|
--------------------------|------------------------------------------|
--------------------------|------------------------------------------|
--------------------------|------------------------------------------|

F5/C Bb F5
S S S S S S S S Q. E E S S S E. S E S E E
--6-----8--------8S-13-13~---------|--8----8-L-------8-----------|
----6--------6---------------------|-----6-----6---6----6-L--6S--|
------5--------5-------------------|-----------------------------|
-----------------------------------|-----------------------------|
-----------------------------------|-----------------------------|
-----------------------------------|-----------------------------|

F5 Eb5 Ebsus2 Db5 Db Eb5 Ebsus2
Q Q E E Q E E E E E E Q
----------------------6S-----|----------------------6S-----|
----------------------6S-----|---------6------------6S-----|
--10----10S----8------8S-----|--6------6--6--8------8S-----|
--10----10S----8------8S-----|--6------6--6--8------8S-----|
---8-----8S----6---6--6S-----|--4---4--4--4--6---6--6S-----|
-----------------------------|-----------------------------|

S S S S Q S S S S Q S S S S Q S S S S E. S
------------------------------|-------------------------------|
------------------------------|-------------------------------|
--5-------------5-------------|--5-------------5-3-3-3-3~---x-|
----3-3-3-3~------5-5-5-5~----|----6-6-6-6~-------------------|
------------------------------|-------------------------------|
------------------------------|-------------------------------|

Q E E S S S S S S S S E S S S S S S S S S S S S E
------------------------------------|-------8----------------------------------|
------------------------------------|---------8-11-8-----------------8---11br--|
--5~----5b--5--8-8b-------10-8----8-|--10b-----------10-8------8-10b---8-------|
--------------------10-10------10---|-----------------------10-----------------|
------------------------------------|------------------------------------------|
------------------------------------|---------------------8--------------------|

Bb5 C5 Db5 Eb5
E Q S S Q. E Q. E Q Q
---------------------------|------------------------|
--L------------------------|------------------8S----|
---------------------------|------------------8S----|
-----------3S-5-5------5S--|--6------6S--8----8S----|
---------------------------|------------------------|
---------------------------|------------------------|

Q Q Q Q S E S E S S S S S S S S E
------------------------------|----------------------------------------------|
--16b----16b----16b----16b----|--16b-16--13----------------------------------|
------------------------------|-------------15--13~--------------------------|
------------------------------|---------------------15---13------------------|
------------------------------|-----------------------------15-14-13---------|
------------------------------|--------------------------------------16-13S--|

Db5 C5
Q. S S Q. E Q. E Q. E
-------------------------|-----------------------|
-------------------------|-----------------------|
-------------------------|--6------6S--8------8--|
--3------3S-5-5------5S--|--6------6S--8------8--|
-------------------------|-----------------------|
-------------------------|-----------------------|

S S S S S E S S S S S S S S S
------------------------------------|
------------------------------------|
-----------------------------8-8----|
------------6----8-6---6S-10-----10-|
--8-6---6-8----8-----8--------------|
------8-----------------------------|

Bb5 Bb5 C5/G C5/G
S S S S S S S S S S S S S S E Q. E Q. E
----------------------------------------------------|-------------------------|
----------------------------------------------------|-------------------------|
-----13-13-------13-13-15-13-15-15-15b-15b-15b-15S--|-------------------------|
--15-13-13-13-15-13-13-15-13-15-15-15b-15b-15b------|--3------3---------------|
----------------------------------------------------|--1------1---3------3----|
----------------------------------------------------|-------------3------3----|

Db5/Ab Eb5/Bb F5 G5
Q. S S Q. E Q. S S Q. E
------------------------------|---------------------------|
------------------------------|---------------------------|
------------------------------|---------------------------|
------------------------------|---------------------------|
--4------4S-6------6------6S--|--8------8S-10-10------10--|
--4------4S-6------6------6S--|--8------8S-10-10------10--|

Ab5 Bb5 C
Q. E Q. E E E E E E E E E
----------------------------|----------------------------------|
----------------------------|----------------------------------|
----------------------------|----------------------------------|
-----------------------15S--|--10--10--10--10--10--10--10--10--|
--11------11S--13-----------|--10--10--10--10--10--10--10--10--|
--11------11S--13------13S--|---8---8---8---8---8---8---8---8--|

C Fm Eb5 Eb
E E E E E E E E Q Q Q Q
----------------------------------|--------------------------|
----------------------------------|---9-----9S----x----8S----|
----------------------------------|--10----10S----8----8S----|
--10--10--10--10--10--10--10--10--|--10----10S----8----8S----|
--10--10--10--10--10--10--10--10--|---8-----8S----6----6S----|
---8---8---8---8---8---8---8---8--|--------------------------|

Db Ebsus2 F5 Fm Ebsus2 Eb5
Q Q E E Q E E Q E E E E
------------------6------|----------------------6----------|
--6----6----------6------|----------9S----x-----6----------|
--6----6----------8------|--10-----10S----8-----8------8S--|
--6----6----------8------|--10-----10S----8-----8------8S--|
--4----4----6--6--6------|---8--8---8S----6--6--6------6S--|
-------------------------|---------------------------------|

Db Ebsus2 F5 Fm Eb5 Ebsus2 Eb5
Q. E E E Q E E Q E E E E
------------6---------6----|----------------------6----------|
--6------6--6---------6----|----------9-----------6----------|
--6------6--8---------8----|---------10-----------8------8S--|
--6------6--8---------8----|--10-----10----8------8------8S--|
--4------4--6------6--6----|---8--8---8----6---6--6------6S--|
---------------------------|---------------------------------|

Db Ebsus2
Q E E E E E E S S S S Q S S S S Q
-------------6---------6-----|------------------------------|
--6----6--6--6---------6-----|------------------------------|
--6----6--6--8---------8-----|--5-------------5-------------|
--6----6--6--8---------8-----|----3-3-3-3~------5-5-5-5~----|
--4----4--4--6------6--6-----|------------------------------|
-----------------------------|------------------------------|

S S S S Q S S S S Q W W
------------------------------|--------------------|-------------------|
------------------------------|--------------------|-------------------|
--5-------------5-3-3-3-3~----|--5~----------------|--L----------------|
----6-6-6-6~------------------|--------------------|-------------------|
------------------------------|--------------------|-------------------|
------------------------------|--------------------|-------------------|

S S S S S S S S S S S S S E. H H
--------------------------------|--------------------||
--------------------------------|--------------------||
--L-L-L-L-L-L-L-L-L-L-L-L-L-L---|--------------------||
--1-3-1---3-1-----3-----3-------|--------------------||
--------3-----3-----------------|--------------------||
----------------4---4-3---3-1---|--L-----------------||

Duration Legend
---------------
W - whole
H - half
Q - quarter
E - 8th
S - 16th
T - 32nd
X - 64th
. - note dotted
|-n-| - n-tuplets

Tablature Legend
----------------
L - tied note
x - dead note
g - grace note
(n) - ghost note
> - accentuded note
NH - natural harmonic
AH - artificial harmonic
TH - tapped harmonic
SH - semi harmonic
PH - pitch harmonic
h - hammer on
p - pull off
b - bend
br - bendRelease
pb - preBend
pbr - preBendRelease
brb - bendReleaseBend
n/ - tremolo bar dip
n - tremolo bar dive
-/n - tremolo bar Release up
/n - tremolo bar inverted dip
/n - tremolo bar return
-n - tremolo bar Release down
S - shift slide
s - legato slide
/ - slide into from below or out of upwards
- slide into from above or out of downwards
~ - vibrato
W - wide vibrato
tr - trill
TP - tremolo picking
T - tapping
S - slap
P - pop
< - fade in
^ - brush up
v - brush down

Source: Guitar Pro5 (export ASCII feature)

Research is what I'm doing when I don't know what I'm doing. - Wernher Von Braun (1912-1977)


   
Quote
(@1st_act)
Estimable Member
Joined: 19 years ago
Posts: 82
 

Very cool song,

I'm tryin' this in 53 minutes...


   
ReplyQuote
(@zacharias)
Estimable Member
Joined: 18 years ago
Posts: 113
 

8) nice, thanks! :lol:

Zacharias Wolf


   
ReplyQuote