Skip to content
easy tabs. The whit...
 
Notifications
Clear all

easy tabs. The white stripes/blink182

1 Posts
1 Users
0 Reactions
629 Views
(@rockboy_155)
Eminent Member
Joined: 20 years ago
Posts: 13
Topic starter  

Here are two easy tabs.

The white stripes ( seven nation army )
1------------------------------------------------------------------------------
2------------------------------------------------------------------------------
3------------------------------------------------------------------------------
4------------------------------------------------------------------------------
5----7---7---10---7---5---3---2---------------------------------------------
6------------------------------------------------------------------------------

Blink 182

1---------------------------------------------------------------------------
2---------------------------------------------------------------------------
3---------------------------------------------------------------------------
4-----3--3--------0--0--2--------0--0--2----------2--2---0--------------
5------------0-0-----------------------------------------------------------
6----------------------------3--3------------1--1--------------------------

Tell me if u like them!!!!!!!!!!!!!!!!!!!!!!!!!!!

- "the whole world is a gimmic"

Rockboy_155


   
Quote