Skip to content
ESD - Requests
 
Notifications
Clear all

[Sticky] ESD - Requests

429 Posts
175 Users
0 Likes
17.6 K Views
KR2
 KR2
(@kr2)
Famed Member
Joined: 15 years ago
Posts: 2717
 

You got Guitar Pro?
No

It's the rock that gives the stream its music . . . and the stream that gives the rock its roll.


   
ReplyQuote
rparker
(@rparker)
Illustrious Member
Joined: 19 years ago
Posts: 5480
 

K. I don't know the song all that well. There are three user attempts at it. One doesn't even sound like music. I'll export the picking into standard ASCI so that you can read it. I hope either one works for you.

first one:
Don't Think Twice It's Alright

Bob Dylan
Bob Dylan

Q Q E E Q E E E E E E E E
E||------------------------|-----------0h--1-----------|
B||------------------------|------------------------1--|
G||*---------------0-------|-----0------------0--------|
D||*-------2----------2----|--------0------------0-----|
A||---3--------------------|---------------------------|
E||-------------3----------|--3------------3-----------|

Q Q E E E E E E E E E E E E
--------------------------|---------------------------|
--(1)------------------1--|-----------1---------------|
-----------------2--------|-----2------------------2--|
---------2----------2-----|--------3------------3-----|
---0----------------------|---------------------------|
--------------3-----------|--1-----------0h--1--------|

E E E E E E E E E E E E E E E E
--------------------------|-----------0h--1-----------|
-----------1-----------1--|------------------------1--|
-----0-----------0--------|-----0------------0--------|
--------2-----------2-----|--------0------------0-----|
--------------------------|---------------------------|
--3-----------3-----------|--3------------3-----------|

Q E E Q Q Q E E Q Q Q Q E E Q
-------------------------|-----------------------|-----------------------|
--(1)-------1------------|--1-------1------------|-----------------------|
-------------------------|-----------------------|---------------0-------|
---------2----------2----|-------2----------2----|-------2----------2----|
---------------3---------|-------------3---------|--3--------------------|
---3---------------------|--3--------------------|------------3----------|

E E E E E E E E Q Q E E E E
-----------0h--1-----------|--------------------------|
------------------------1--|--(1)------------------1--|
-----0------------0--------|-----------------2--------|
--------0------------0-----|---------2----------2-----|
---------------------------|---0----------0-----------|
--3------------3-----------|--------------------------|

E E E E E E Q E E E E E E E E
-------------------------|--------------------------|
-----------1-------------|-----------1-----------1--|
-----2-----------2-------|-----2-----------2--------|
--------2-----------2----|--------3-----------3-----|
--0----------------------|--------------------------|
--------------3----------|--1-----------1-----------|

E E E E E E E E Q Q E E E E
---------------------------|--------------------------|
------------------1--------|---------1-------------1--|
-----2-----0h--2--------0--|--(0)------------0--------|
--------3------------3-----|---------2----------2-----|
---------------------------|--------------------------|
--1------------1-----------|---3----------3-----------|

E E E E E E E E Q Q E E Q
-----------0h--1-----------|-------------------------|
------------------------1--|--(1)--------------------|
-----0------------0--------|-----------------0-------|
--------0------------0-----|---------2----------2----|
---------------------------|-------------------------|
--3------------3-----------|---3----------3----------|

E E E E E E E E Q Q E E E E
-----------0h--1-----------|--------------------------|
------------------------1--|--(1)------------------1--|
-----0------------0--------|-----------------2--------|
--------0------------0-----|---------2----------2-----|
---------------------------|---0----------0-----------|
--3------------3-----------|--------------------------|

E E E E E E Q E E E E E E E E E E E E E E E E
-------------------------|--------------------------|--------------------------|
-----------1-------------|-----------1-----------1--|-----------1--------------|
-----2-----------2-------|-----2-----------2--------|-----2-----------2-----0--|
--------2-----------2----|--------0-----------0-----|--------0-----------0-----|
--0----------------------|--------------------------|--------------------------|
--------------3----------|--2-----------2-----------|--2-----------2-----------|

E E E E E E E E E E Q E E Q Q Q E E E E
----------------------------|------------------------|------------------------|
-----0------------0---------|-----0------------------|---------------------1--|
----------------------------|----------------0-------|---------------0--------|
--------0h--2--------2h--3--|--------3----------0----|-------2----------2-----|
----------------------------|------------------------|--3---------------------|
--3------------3------------|--3----------3----------|------------3-----------|

Q Q E E E E Q Q E E E E E E E E E E Q
------------------------|--------------------------|-------------------------|
---------------------1--|--(1)------------------1--|-----------1-------------|
---------------0--------|-----------------3--------|-----3-----------3-------|
-------2----------2-----|---------2----------2-----|--------2-----------2----|
--3---------------------|---3----------3-----------|--3-----------3----------|
------------3-----------|--------------------------|-------------------------|

E E E E E E E E E E E E E E Q E E E E E E E E
--------------------------|-------------------------|-----------------------0--|
-----------1-----------1--|-----------1-------------|-----------1--------------|
-----2-----------2--------|-----2-----------2-------|-----2-----------2--------|
--------3-----------3-----|--------3-----------3----|--------0-----------0-----|
--------------------------|-------------------------|--------------------------|
--1-----------1-----------|--1-----------1----------|--2-----------2-----------|

E E E E E E E E E E E E E E E E
-----------0h--2-----------|--------------------------|
------------------------1--|-----------1-----------1--|
-----2------------0--------|-----0-----------0--------|
--------0------------0-----|--------2-----------2-----|
---------------------------|--------------------------|
--2------------2-----------|--3-----------3-----------|

E E E E E E E E E E E E E E E E E E E E E E Q
--------------------------|--------------------------|-------------------------|
-----------0-----------0--|-----------1-----------1--|-----------1-------------|
-----0-----------0--------|-----2-----------2--------|-----2-----------2-------|
--------0-----------0-----|--------2-----------2-----|--------3-----------3----|
--------------------------|--0-----------------------|-------------------------|
--3-----------3-----------|--------------3-----------|--1-----------1----------|

E E E E E E E E E E E E E E Q Q Q E E E E
--------------------------|--------------------------|------------------------|
-----------1-----------1--|--------------------------|---------------------1--|
-----0-----------0--------|-----0------------0-------|---------------0--------|
--------2-----------2-----|--------0h--2--------3----|-------2----------2-----|
--------------------------|--------------------------|--3---------------------|
--3-----------3-----------|--3------------3----------|------------3-----------|

Q Q E E E E Q Q H
---------------------------||--0------------------||
--(1)------------------1---||--1------------------||
-----------------3--------*||--0------------------||
---------2----------2-----*||--2------------------||
---3----------3------------||--3------------------||
---------------------------||---------------------||

Duration Legend
---------------
W - whole
H - half
Q - quarter
E - 8th
S - 16th
T - 32nd
X - 64th
. - note dotted
|-n-| - n-tuplets

Tablature Legend
----------------
L - tied note
x - dead note
g - grace note
(n) - ghost note
> - accentuded note
NH - natural harmonic
AH - artificial harmonic
TH - tapped harmonic
SH - semi harmonic
PH - pitch harmonic
h - hammer on
p - pull off
b - bend
br - bendRelease
pb - preBend
pbr - preBendRelease
brb - bendReleaseBend
n/ - tremolo bar dip
n - tremolo bar dive
-/n - tremolo bar Release up
/n - tremolo bar inverted dip
/n - tremolo bar return
-n - tremolo bar Release down
S - shift slide
s - legato slide
/ - slide into from below or out of upwards
- slide into from above or out of downwards
~ - vibrato
W - wide vibrato
tr - trill
TP - tremolo picking
T - tapping
S - slap
P - pop
< - fade in
^ - brush up
v - brush down

2nd one
Don' t Think Twice, It' s All Right

Bob Dylan
Track 1

It
G
Q E E E E Q Q E E E E Q
E||--3-------------3-------|--3-------------3-------|
B||----------0-------------|----------0--------0----|
G||------------------------|------------------------|
D||-------0-----------0----|-------0-----------0----|
A||------------------------|------------------------|
E||--3----------3----------|--3----------3----------|

ain't no use to sit and won - der
wal- kin' down _ _ _ that long and _ lone- some
D
E E E E Q E E E E Q Q Q
|------------------------------------------|---------------------------|
|---0------------0----L----0--L-------0----|--3----3---L----3-----3----|
|*-----------------------------------------|---------------------------|
|*--------------------0------------0-------|-----------0----------0----|
|------------------------------------------|---------------------------|
|---3-------------------------3------------|--2-------------2----------|

why babe it don't
road _ babe _ _ _ _ _ _ _ _ _ where _ I'm
Em C
Q E E Q Q Q E E E E Q Q Q Q Q
-------------------------|--0-------------0-------|------------------------|
--0----L-----------------|----------0-------------|-------1-----L----1-----|
----------0----L---------|------------------------|------------------------|
-------2------------2----|-------2-----------2----|-------2----------2-----|
-------------------------|------------------------|--3---------------------|
--0------------0---------|--0----------0----------|-------------3----------|

mat - ter an - y how
bound _I just can't tell (=>F5)
G
Q Q Q Q Q Q Q Q
------------------------------|------------------------|
--1---------1----0------1-----|--3----L----------------|
------------------------------|------------------------|
------------2-----------2-----|-------0-----------0----|
--3---------------------------|------------------------|
-----------------3------------|--3-----------3---------|

and it aint no use to
D G
Q Q Q E E E E E E Q E E
---------------------------|-------------------------------|
-----------------0------0--|--0-------0--L--0---L-------0--|
---------------------------|-------------------------------|
-------0---------0---------|-------------0-----------0-----|
---------------------------|-------------------------------|
--2---------2--------------|--3-----------------3----------|

sit and won - der why babe
D Em
E E E E Q Q Q E E Q Q
------------------------------------|-------------------------|
--3-------3--L--3---------L----3----|--0----L-----------------|
------------------------------------|----------0----L---------|
-------------0-----------------0----|-------2------------2----|
------------------------------------|-------------------------|
--2-----------------------2---------|--0------------0---------|

(not) if you don't know by
A7
Q E E E E Q Q Q Q Q Q Q Q Q
--0-------------0-------|--------3----L----3----|--3-----L----2-------3----|
----------0-------------|-----------------------|--------------------------|
------------------------|-----------------------|--------------------------|
-------2-----------2----|--------2---------2----|--------2------------2----|
------------------------|--0--------------------|--0-----------------------|
--0----------0----------|-------------0---------|-------------0------------|

now when the roos - ter
D G
Q Q Q Q Q Q Q Q Q Q Q Q
----------------------|--------------------------|----------------------------|
--3----L--------------|--------------------------|----------------------------|
----------------------|------------0--------0----|--0----------0----L---------|
-------0---------0----|-------0-------------0----|-------------0---------0----|
----------------------|--------------------------|----------------------------|
--2---------2---------|--2---------2-------------|--3---------------3---------|

crows at the break of dawn
Q Q Q Q Q Q Q Q Q Q Q Q
-------------------------|-----------------------|----------------------|
-------------------------|--0-----L---------0----|--0----L--------------|
--0-----L----0------2----|-----------------------|----------------------|
--------0-----------0----|--------0---------0----|-------0---------0----|
-------------------------|-----------------------|----------------------|
--3----------3-----------|--3----------3---------|--3---------3---------|

look at your win-dow and _
C
Q Q Q Q Q Q Q Q
------------------------------|-----------------------------|
------------------------------|-----------------------------|
-------0------------0----0----|--0-----------0----2---------|
-------2-----------------2----|--------------2---------2----|
--3---------------------------|--3--------------------------|
--------------------3---------|-------------------3---------|

I'll be gone your the
A G
Q Q Q Q Q Q Q Q Q Q Q Q
----------------------|----------------------|-------3----L----3----|
--0----L---------0----|--0----L--------------|----------------------|
----------------------|----------------------|----------------------|
-------2---------2----|-------2---------2----|-------0---------0----|
--0---------0---------|--0---------0---------|----------------------|
----------------------|----------------------|--3---------3---------|

reason I'm trave - lin'
Em
Q Q Q Q Q Q Q Q
--3----------3----3----L----|--3------------3--------------|
----------------------------|------------------------------|
----------------------------|------------------------------|
-------------0---------0----|---------------2---------2----|
----------------------------|------------------------------|
--3---------------3---------|--0-----------------0---------|

on don't think twice it's all
C G D
Q Q Q Q Q Q Q Q Q Q Q Q
--0----L--------------|-------3-----L----3-----|---------------------------|
----------------------|------------------------|--3-----L----3--------3----|
----------------------|------------------------|---------------------------|
-------2---------2----|-------0----------0-----|--------0-------------0----|
--3-------------------|------------------------|---------------------------|
------------3---------|--3----------3----------|--2----------2-------------|

right 4° = I'm
G D7
Q Q Q Q Q E E E E Q
--(3)-------------------|--2-------------2--------------||
------------------------|----------1--------------0-----||
---0--------------------|------------------------------*||
---------0---------0----|-------0-----------------0----*||
------------------------|-------------------------------||
---3----------3---------|--2----------2-----------------||

right
G
Q Q Q Q Q H.
--(3)-------------------|--3-----------------||
------------------------|--0-----------------||
---0--------------------|--0-----------------||
---------0---------0----|--------------------||
------------------------|--------------------||
---3----------3---------|--3-----------------||

Duration Legend
---------------
W - whole
H - half
Q - quarter
E - 8th
S - 16th
T - 32nd
X - 64th
. - note dotted
|-n-| - n-tuplets

Tablature Legend
----------------
L - tied note
x - dead note
g - grace note
(n) - ghost note
> - accentuded note
NH - natural harmonic
AH - artificial harmonic
TH - tapped harmonic
SH - semi harmonic
PH - pitch harmonic
h - hammer on
p - pull off
b - bend
br - bendRelease
pb - preBend
pbr - preBendRelease
brb - bendReleaseBend
n/ - tremolo bar dip
n - tremolo bar dive
-/n - tremolo bar Release up
/n - tremolo bar inverted dip
/n - tremolo bar return
-n - tremolo bar Release down
S - shift slide
s - legato slide
/ - slide into from below or out of upwards
- slide into from above or out of downwards
~ - vibrato
W - wide vibrato
tr - trill
TP - tremolo picking
T - tapping
S - slap
P - pop
< - fade in
^ - brush up
v - brush down

Roy
"I wonder if a composer ever intentionally composed a piece that was physically impossible to play and stuck it away to be found years later after his death, knowing it would forever drive perfectionist musicians crazy." - George Carlin


   
ReplyQuote
David Hodge
(@davidhodge)
Member
Joined: 15 years ago
Posts: 4472
 

Bob Dylan's
"Don't Think Twice, It's Alright"

I'm interested also in the picking pattern for the song.
Thanks for any help.

Coming up as a song lesson (based on The Free Wheelin' Bob Dylan version) in the next week or two...

Peace


   
ReplyQuote
KR2
 KR2
(@kr2)
Famed Member
Joined: 15 years ago
Posts: 2717
 

Thanks, Roy
And, DH,
the one from "FreeWheelin' Bob Dylan" album is EXACTLY what I was talking about. TYVM.
I know that is going to take a lot of time on your part . . .
. . . and even more time on mine to learn . . . but I'm getting to like fingerpickin'.

Very much appreciated,
KR2

It's the rock that gives the stream its music . . . and the stream that gives the rock its roll.


   
ReplyQuote
Elecktrablue
(@elecktrablue)
Famed Member
Joined: 18 years ago
Posts: 4338
 

I've been trying to work out the Allman Bros. "Little Martha" but there's a couple of places I'm unclear on. Was wondering if anyone has a decent tab for "Little Martha"?

..· ´¨¨)) -:¦:-
¸.·´ .·´¨¨))
((¸¸.·´ .·´
-:¦:- ((¸¸.·´ -:¦:- Elecktrablue -:¦:-

"Don't wanna ride no shootin' star. Just wanna play on the rhythm guitar." Emmylou Harris, "Rhythm Guitar" from "The Ballad of Sally Rose"


   
ReplyQuote
Stargazer
(@stargazer)
Eminent Member
Joined: 14 years ago
Posts: 16
 

'Nightlife' by Willie Nelson, anybody?

I found a tab for the way Willie performs it - but the version I'm after is something maybe only older players will remember.
Back in the 60's Chicken Shack had a hit with 'I'd Rather Go Blind' and the B side was an absolutely blinding bluesey version of 'Nightlife". it'd be fantastic if anybody's got it and could tab it...


   
ReplyQuote
Minotaur
(@minotaur)
Noble Member
Joined: 15 years ago
Posts: 1089
 

I did a search and found a few other requests about You Don't Mess Around With Jim.

I cannot find a chord sheet or tab that does it justice. Only musicnotes.com has something that seems right... for $6.95 I may wind up springing for it.

http://www.musicnotes.com/sheetmusic/mtd.asp?ppn=MN0049775

Correction: sheetmusicdirect.com has the same tabs for .99 I got the two different copies for a total of $1.98. Can you go wrong? I'll see how they play.

All I have found on the 'net is stuff like this (sorry this post is so long). The chords are easy, but I can't quite figure out the rhythm. Sounds like it might be a blues shuffle (I have blues shuffles and 12 bar blues on the brain this week).
Verse:1
G
Uptown got it's hustlers, The bowery got it's bums,

42nd Street got Big Jim Walker,

He's a pool-shootin' son of a gun,
C
Yeah, he big and dumb as a man can come,

But he stronger than a country hoss,
D7 C
And when the bad folks all get together at night,
D7 C G
You know they all call big Jim "Boss", just because.

And they say.

Chorus:
C G C G
You don't tug on Superman's cape, You don't spit into the wind,
C
You don't pull the mask off that old Lone Ranger,
D7 G D7
And you don't mess around with Jim.

Verse:2
G
Well outta south Alabama came a country boy,

He say I'm lookin' for a man named Jim ,

I am a pool-shootin' boy, My name Willie McCoy,

But down home they call me Slim ,
C
Yeah I'm lookin' for the king of 42nd Street,

He drivin' a drop top Cadillac,
D7 C
Last week he took all my money, And it may sound funny,
D7 C
But I come to get my money back,
G D7
And everybody say Jack don't you know.

- REPEAT Chorus -

Verse:3
G
Well a hush fell over the pool room ,

Jimmy come boppin' in off the street,

And when the cuttin' were done,

The only part that wasn't bloody,

Was the soles of the big man's feet,
C
Yeah he were cut in in bout a hundred places,

And he were shot in a couple more,
D7
And you better believe,
C
They sung a different kind of story,
D7 C G
When big Jim hit the floor now they say

- REPEAT Chorus Change last word to SLIM -

Refrain:
G
Yeah, big Jim got his hat, Find out where it's at,
GG
And it's not hustlin' people strange to you,
G
Even if you do got a two-piece custom-made pool cue.

Final Chorus:
G7 C G C G
Yeah you don't tug on Superman's cape, You don't spit into the wind,
C
You don't pull the mask off the old Lone Ranger,
D7 G
And you don't mess around with Slim.

and...
<E>Uptown's got its hustlers
The Bowry's got its bums
Forty-second street's got Big Jim Walker
He's a <E7>pool-shootin' son of a gun
Well he's <A7>big and dumb as a man can come
But he's stronger than a country hoss
And when the <B7>bad folks all get <A7>together at night
You know they <B7>all call Big Jim <A7>"boss"
(Just be<E>cause ...)
(They say ...)
CHORUS:
You don't <A7>tug on Superman's <E7>cape
You don't <A7>spit into the <E7>wind
You don't <A7>pull the mask of the old Lone Ranger
And you <B7>don't mess around with <E7>Jim
(Ba-doo-da-doo-doo <A7>doo-doo-doo-doo <B7>doot)
Well out of South Alabama come a country boy
He said I'm lookin' for a man named Jim
I am a pool-shootin' boy, my name is Willie McCoy
But back home they call me Slim
He said I'm lookin' for the king of forty-second street
He's drivin' a drop-top Cadillac
And last week he took all my money, and it may sound funny
But I come to get my money back
(And everybody say, Jack -- don't you know that...)
(CHORUS)
Well a hush fell over the pool room
When Jimmy come boppin' in off the street
And when the cuttin' was done, the only part that wasn't bloody
Was the soles of the big man's feet
He was cut in 'bout a hundred places
And he was shot in a couple more
And you better believe they sung a different kind of story
When Big Jim hit the floor
(And now they say)
You don't tug on Superman's cape
You don't spit into the wind
You don't pull the mask of the old Lone Ranger
And you don't mess around with Slim
From: [email protected]
You Don't Mess Around With Jim
(Jim Croce) c 1971
Uptown got its hustlers, [G]
Bowery got its bums [G]
42nd street got Big Jim Walker; [G]
he a pool-shootin' son-of-a-gun [G7]
Yeah, he big and dumb as a man can come [C F C F]
and meaner than a country hoss [C F C]
And when the bad folks all get together at night [D C]
You know they all call Big Jim "Boss" [D C]
just because-- and they say... [G C G]
[Chorus]
You don't tug on Superman's cape [C7 G]
You don't spit into the wind [C7 G]
You don't pull the mask off the old Lone Ranger [C7]
and you don't mess around with Jim [D7 G C7 G C7]
Well outa South Alabama come a country [G]
He said I'm lookin' for a man named Jim
I am a pool-shootin' boy, my name is Willie McCoy
But down home they call me "Slim" [G7]
Yeah, I'm lookin' for the king of 42nd street [C F C F]
He drivin' a drop-top Cadillac [C F C]
Last week he took all my money and it may sound funny [D C]
but I come to get my money back [D C]
and everybody say, "Hey Jack... don't you know..." [G C G]
[repeat Chorus]
Well a hush feel over the pool room [G]
Jimmy come a-boppin' in off the street
And when the cuttin' was done the only part that wasn't bloody
was the soles of the big man's feet [G7]
Yeah, he were cut in 'bout a hundred places [C F C F]
and he were shot in a couple more [C F C]
And you better believe they sung a different kind of story [D C]
when Big Jim hit the floor [D C]
Whoa... now they say... [G C G]
You don't tug on Superman's cape [C7 G]
You don't spit into the wind [C7 G]
You don't pull the mask off the old Lone Ranger [C7]
and you don't mess around with "Slim" [D7 G C7 G C7]
[Spoken, use G-C progression]
"Yeah Big Jim got his hat, find out where it's at
and it's not hustlin' people strange to you
Even if you do got a two-piece custom-made pool cue."
[repeat "Slim" Chorus]

It is difficult to answer when one does not understand the question.


   
ReplyQuote
Heyesie
(@heyesie)
Trusted Member
Joined: 18 years ago
Posts: 40
 

Hi guys
anyone got the tab chord for this one
I have found it by ash but the chords dont feel right to me
the authors tend to have it starting G D BM G D
but to me with annie singing it needs to be higher
I have tried it with C F C AM
but am unsure
any thoughts please

Many are called but few are chosen.


   
ReplyQuote
lue42
(@lue42)
Reputable Member
Joined: 14 years ago
Posts: 356
 

I'm looking for an MP3 or backing track to this song? Anyone? Anyone?

I already have the tab/sheet music.

Thanks for any help.. this is one of those songs I've wanted to learn for so long.

http://www.guitarbt.com/index.php

They have a backing track for it...

Search youtube for the song and use http://vidtomp3.com/ to save as mp3

My Fingerstyle Guitar Blog:
http://fsguitar.wordpress.com

My Guitars
Ibanez Artwood AWS1000ECE-NT
Schecter S-1 30th Anniversary Edition
Ovation CS257
LaPatrie Etude
Washburn Rover RO10


   
ReplyQuote
lue42
(@lue42)
Reputable Member
Joined: 14 years ago
Posts: 356
 

Can someone help me find the tabs/chords, and preferably help with the strumming patterns and fingerpicking patterns for the songs?

I was able to find the chords for Mira... but, as it is fingerpicking song, I have not been able to figure out a good pattern.

Thanks!

My Fingerstyle Guitar Blog:
http://fsguitar.wordpress.com

My Guitars
Ibanez Artwood AWS1000ECE-NT
Schecter S-1 30th Anniversary Edition
Ovation CS257
LaPatrie Etude
Washburn Rover RO10


   
ReplyQuote
Minotaur
(@minotaur)
Noble Member
Joined: 15 years ago
Posts: 1089
 

I can't find Leon Russell's Magic Mirror for love or money. Anyone got something on it? I understand it's out of print. I wonder why this is, Tightrope is still around. :?

It is difficult to answer when one does not understand the question.


   
ReplyQuote
daza152
(@daza152)
Trusted Member
Joined: 14 years ago
Posts: 32
 

Hi Could someone please tell me how to play this "easy" Bob Dylan classic.
Chords and strumming pattern would be great, or an mp3 of the stumming :D
I only song I can play is wish you were here, so I'd like to add another song to my collection.
I've only been playing for 6 to 8 weeks so you may have to dumb it down for me :oops:

Thanks Daza.


   
ReplyQuote
Elecktrablue
(@elecktrablue)
Famed Member
Joined: 18 years ago
Posts: 4338
 

Try these. You can always search the Easy Songs Database, which is where the first one came from, there are 2 lists. One with alphabetized song titles and one with alphabetized artists, either of which will lead you to the song. Or you can do a general search of the site by using the little search box in the top right hand corner of the page.

https://www.guitarnoise.com/forums/viewtopic.php?t=23082

http://forums.guitarnoise.com/viewtopic.php?f=9&t=43817&hilit=knockin+on+heaven%27s+door

..· ´¨¨)) -:¦:-
¸.·´ .·´¨¨))
((¸¸.·´ .·´
-:¦:- ((¸¸.·´ -:¦:- Elecktrablue -:¦:-

"Don't wanna ride no shootin' star. Just wanna play on the rhythm guitar." Emmylou Harris, "Rhythm Guitar" from "The Ballad of Sally Rose"


   
ReplyQuote
daza152
(@daza152)
Trusted Member
Joined: 14 years ago
Posts: 32
 

Thanks I appreciate your help, and I would like to learn this song but I think I better start with the guitar noise easy songs list first cause he breaks it down in to seperate parts and i can listen to just the guitar strumming, also he is a brilliant teacher, wouldn't you agree? :)

Thanks Daza


   
ReplyQuote
mweber814
(@mweber814)
New Member
Joined: 14 years ago
Posts: 1
 

Cold War Kids - Hospital Beds - Need help with strumming

http://www.ultimate-guitar.com/tabs/c/cold_war_kids/hospital_beds_crd.htm

Thanks.

Mark


   
ReplyQuote
Page 27 / 29