Skip to content

Forum

Illegal Smile - Joh...
 
Notifications
Clear all

Illegal Smile - John Prine - Fingerstyle


(@elecktrablue)
Famed Member
Joined: 18 years ago
Posts: 4389
Topic starter  

Illegal Smile - John Prine - Fingerstyle

Verse:
e|---------------------------------------------------------|
B|--1---------1-------1------1-------1-----1-------1-----1-|
G|------0---0-------0------0-------0-----0-------0-----0---|
D|---------------------------------------------------------|
A|----3---3-----0h3-----3------0h3-----3-----0h3-----3-----|
E|---------------------------------------------------------|

e|--------------------7------------------------------------------------|
B|------1-----1---0-----0---0-----------------1-----1------1-----1-----|
G|----0-----0-------0-----0------------5----0-----0------2-----2-------|
D|-------------------------------7---7---------------------------------|
A|--3-----3-------------------------------3-----3----------------------|
E|--------------7--------------5---5-------------------1-----1---------|

e|---------------------------------------------------------------------|
B|------1-----1------0-----1------1-----1-----0---------1----------1---|
G|----0-----0------0-----2------0-----0-----0-----0---2-----2----0-----|
D|---------------------------------------------------------------------|
A|--3-----3-------------------3-----3--------------------------3-----3-|
E|---------------3-----1-------------------3----3---1-----1------------|

e|---------------------------------------------------------------------|
B|--1-----1-----1------0---------1----------1----1-----1-----1---------|
G|--2---0-----0------0-----0---2-----2----0------2---0-----0-----------|
D|---------------------------------------------------------------------|
A|----3-----3---------------------------3-----3----3-----3-------------|
E|--1--------------3-----3---1-----1-------------1---------------------|

e|---------3------------------------------------|
B|---------------1-----1------1-----0-----1-----|
G|-------------0-----0------2-----0-----0-------|
D|------0---------------------------------------|
A|----2------3-----3------------------3---------|
E|--3---------------------1-----3---------------|

Chorus:
F C
And you may see me tonight with an illegal smile
G C
It don't cost very much, but it lasts a long while
F C
Won't you please tell the man I didn't kill anyone
G F C F C F C F
No I'm just tryin' to have me some fun

(Repeat Verse)

(Repeat Chorus)

(Repeat Verse)

(Repeat Chorus)

..· ´¨¨)) -:¦:-
¸.·´ .·´¨¨))
((¸¸.·´ .·´
-:¦:- ((¸¸.·´ -:¦:- Elecktrablue -:¦:-

"Don't wanna ride no shootin' star. Just wanna play on the rhythm guitar." Emmylou Harris, "Rhythm Guitar" from "The Ballad of Sally Rose"


Quote