Skip to content
Let It Be - Beatles...
 
Notifications
Clear all

Let It Be - Beatles (Fingerstyle)


(@lue42)
Reputable Member
Joined: 14 years ago
Posts: 356
Topic starter  

Let It Be - Beatles
Fingerstyle Arrangement

I combined this from a few different tabs I found around the net and think it is a fairly easy and nice sounding version of the song. Let notes ring out as much as possible.
Let It Be

Q Q Q Q Q Q Q Q Q Q Q Q
E||--0---------0---------|----------------------|----------------------|
B||--1---------1---------|--3---------3---------|--1---------1---------|
G||--0---------0---------|--0---------0---------|--2---------2---------|
D||----------------------|--0---------0---------|--2---------2---------|
A||-------3---------3----|----------------------|-------0---------0----|
E||----------------------|-------3---------3----|----------------------|

Q Q Q Q Q Q Q E E Q Q Q Q
--0-------------------|--0---------0----------|----------------------|
--1---------3---------|--1---------1----------|--3---------3---------|
--2---------2---------|--0---------0----------|--0---------0---------|
------------3---------|-----------------------|--0---------0---------|
----------------------|-------3---------3-----|----------------------|
-------1---------1----|--------------------2--|--3----3---------3----|

H Q Q Q Q Q E E Q Q E E E E
--1--------0---------|-----------------------|------------------------|
----------------3----|--1--------------------|------------------------|
--2--------0---------|-----------------0--0--|--0----0----0--2-----0--|
----------------3----|--2--------------------|------------------2-----|
---------------------|-------3----3----------|--3---------3-----------|
---------------------|-----------------------|------------------------|

Q Q E E Q E E Q Q Q Q E E Q Q
-----------------------|--0--0--0--------------|-----------------------|
------------1--3-------|--1---------------3----|--3----1--1------------|
-------0---------------|-----------------------|-----------------------|
-----------------------|-----------------------|-----------------------|
-----------------------|--0----------0---------|-----------------------|
--3---------3-----3----|------------------3----|--1----------1----3----|

Q Q E E E E Q Q E E Q Q Q Q Q
--0----0----0--1--0--0--|---------------0-------|----------------------|
--1---------------------|-------3----------3----|--3----1--------------|
--0---------------------|------------0----------|------------0----0----|
------------------------|-----------------------|------------2----0----|
--3---------3-----------|-----------------------|----------------------|
------------------------|--3---------3----------|--1-------------------|

Q Q H Q Q E E E E Q Q E E Q
---------------------|------------------------|-----------------------|
------------1--------|------------------------|------------1--3-------|
------------0--------|--0----0----0--2-----0--|-------0---------------|
-------2-------------|------------------2-----|-----------------------|
--3---------3--------|--3---------3-----------|-----------------------|
---------------------|------------------------|--3---------3-----3----|

E E Q Q Q Q E E Q Q Q Q E E E E
--0--0--0--------------|-----------------------|--0----0----0--1--0--0--|
--1---------------3----|--3----1--1------------|--1---------------------|
-----------------------|-----------------------|--0---------------------|
-----------------------|-----------------------|------------------------|
--0----------0---------|-----------------------|--3---------3-----------|
------------------3----|--1----------1----3----|------------------------|

Q Q E E Q Q Q Q Q Q Q E E Q
---------------0-------|----------------------|-------0----0----------|
-------3----------3----|--3----1--------------|-------1-------3--1----|
------------0----------|------------0----0----|-----------------------|
-----------------------|------------2----0----|-----------------------|
-----------------------|----------------------|--3---------2----------|
--3---------3----------|--1-------------------|-----------------------|

Q E E E E E E Q Q E E E E Q Q E E Q
-------------0--3--3S--5--|--0----0----0--0--------|------------------0----|
----------1---------------|------------------3--1--|-------3---------------|
-------2------------------|------------------------|------------2--0-------|
--------------------------|------------------------|-----------------------|
--0----------0------------|------------------------|-----------------------|
--------------------------|--3---------3-----------|--1---------1----------|

Q Q E E Q Q Q E E E E Q Q E E E E
-----------------------|--0----0----0--1--0--0--|---------------0--------|
-------1----1--1--1----|--1---------------------|-------3----------3--3--|
-------0----0--0--0----|--0---------------------|------------0-----------|
-----------------------|------------------------|------------------------|
--3---------3----------|--3---------3-----------|------------------------|
-----------------------|------------------------|--3---------3-----------|

E Q. Q Q Q Q E E Q Q E E E E E E
----------------------|-------0----0----------|-------------0--3--3S--5--|
-----1----------------|---------------3--1----|----------1---------------|
------------0----0----|-----------------------|-------2------------------|
------------2----0----|-----------------------|--------------------------|
----------------------|--3---------2----------|--0----------0------------|
--1-------------------|-----------------------|--------------------------|

Q Q E E E E Q Q E E Q Q Q E E Q
--0----0----0--0--------|------------------0----|-----------------------|
------------------3--1--|-------3---------------|-------1----1--1--1----|
------------------------|------------2--0-------|-------0----0--0--0----|
------------------------|-----------------------|-----------------------|
------------------------|-----------------------|--3--------------------|
--3---------3-----------|--1---------1----------|-----------------------|

Q Q E E E E Q Q E E E E E Q E Q Q
--0----0----0--1--0--0--|---------------0--------|-----------------------|
--1---------------------|-------3----------3--3--|-----1-----------------|
--0---------------------|------------0-----------|----------2--0----0----|
------------------------|------------------------|-------------2----0----|
--3---------3-----------|------------------------|-----------------------|
------------------------|--3---------3-----------|--1--------------------|

Q Q E E Q H Q Q H Q Q
-----------------------|--1--------0---------|---------------------|
-------1----1--1--1----|----------------3----|--1------------------|
-------0----0--0--0----|--2--------0---------|-----------3----2----|
-----------------------|----------------3----|--2--------0---------|
--3--------------------|---------------------|----------------3----|
-----------------------|---------------------|---------------------|

H H Q Q E E Q E E E E Q Q
--------------------|-----------------------|-----------1------------|
--------------------|--1------------1-------|--------1---------------|
--0-----------------|--0--------------------|-----2--------0----0----|
-----------3--------|--2--------------------|--3-----------2----0----|
--2--------0--------|--3----3---------------|------------------------|
--------------------|--3----3----3-----3----|------------------------|

G F C
^
E E E E Q Q H H H H
------------------------|--3--------1--------|--0-----------------||
-----------1------------|--0--------1--------|--1-----------------||
--------0---------------|--0--------2--------|--0-----------------||
--------------3----3----|--0--------3--------|--2-----------------||
--3--2--------1----0----|--2--------3--------|--3-----------------||
------------------------|--3--------1--------|--3-----------------||

Duration Legend
---------------
H - half
Q - quarter
E - 8th

My Fingerstyle Guitar Blog:
http://fsguitar.wordpress.com

My Guitars
Ibanez Artwood AWS1000ECE-NT
Schecter S-1 30th Anniversary Edition
Ovation CS257
LaPatrie Etude
Washburn Rover RO10


Quote