Skip to content
Matthew Good Band -...
 
Notifications
Clear all

Matthew Good Band - Hello Timebomb questions....

1 Posts
1 Users
0 Likes
256 Views
tabmow
(@tabmow)
Eminent Member
Joined: 19 years ago
Posts: 24
Topic starter  

I'm trying some electric stuff as a change from the usual acoustic stuff, and I have a question about this particular song (Matthew Good Band - "Hello Timebomb") and was wondering if anyone can offer guidance/tips (not sure if this should go in the Beginner's Forum or here).

Anyway, the song isn't too hard, it's just the strumming I had a question about.
Looking at a tab from here:
[link removed]
the pre-chorus looks like this:

Pre-Chorus
F C
e|-----------------|------------------|------------------|---------------------|
B|-----------------|------------------|------------------|---------------------|
G|-----------------|------------------|-5-5-5-5-5-5-5-5--|-5-5-5-5-5-5-5-5-----|
D|-3-3-3-3-3-3-3-3-|-3-3-3-3-3-3-3-3--|-5-5-5-5-5-5-5-5--|-5-5-5-5-5-5-5-5-----|
A|-3-3-3-3-3-3-3-3-|-3-3-3-3-3-3-3-3--|-3-3-3-3-3-3-3-3--|-3-3-3-3-3-3-3-3-----|
E|-1-1-1-1-1-1-1-1-|-1-1-1-1-1-1-1-1--|------------------|---------------------|

It sounds like those are all just down strokes, right? Or something else?

Chorus
D Bb F E
e|-----------------|------------------|------------------|---------------------|
B|-----------------|------------------|------------------|---------------------|
G|-7-7-7-7-7-7-7-7-|------------------|-1010101010101010-|-9-9-9-9-9-9-9-9-----|
D|-7-7-7-7-7-7-7-7-|-8-8-8-8-8-8-8-8--|-1010101010101010-|-9-9-9-9-9-9-9-9-----|
A|-5-5-5-5-5-5-5-5-|-8-8-8-8-8-8-8-8--|-8-8-8-8-8-8-8-8--|-7-7-7-7-7-7-7-7-----|
E|-----------------|-6-6-6-6-6-6-6-6--|------------------|---------------------|

What about the chorus above? Is there a strum pattern that i'm just not hearing in here?
Thanks for any tips/suggestions anyone can post...


   
Quote