Skip to content
Rolling Stones - An...
 
Notifications
Clear all

Rolling Stones - Angie (help)

7 Posts
6 Users
0 Likes
1,162 Views
(@nedder)
Trusted Member
Joined: 19 years ago
Posts: 28
Topic starter  

can anyone tab all of the chords for me? particuarly the F chord.

thanks.

i want to learn


   
Quote
(@jbehar)
Trusted Member
Joined: 20 years ago
Posts: 81
 

There's a pretty good rendition here..

http://betty.hypermax.net.au/angie.htm

For chord fingerings try here

http://guitartabschords.com/


   
ReplyQuote
(@alangreen)
Member
Joined: 21 years ago
Posts: 5342
 

Care - there is a bum note on the recording

A :-)

"Be good at what you can do" - Fingerbanger"
I have always felt that it is better to do what is beautiful than what is 'right'" - Eliot Fisk
Wedding music and guitar lessons in Essex. Listen at: http://www.rollmopmusic.co.uk


   
ReplyQuote
(@nedder)
Trusted Member
Joined: 19 years ago
Posts: 28
Topic starter  

im using the fmajor7 for the f chord, but it doesnt sound right.?? :?

i want to learn


   
ReplyQuote
(@slydog)
Reputable Member
Joined: 20 years ago
Posts: 243
 

I think a plain F works better:

-1-
-1-
-2-
-3-
-3-
-1-

or

-1-
-1-
-2-
-3-
-x-
-x-

Also, you might substitute an E7 for the E:

-0-
-0-
-1-
-0-
-2-
-0-

Blame it on the lies that killed us, blame it on the truth that ran us down.


   
ReplyQuote
(@bundy)
Active Member
Joined: 19 years ago
Posts: 4
 

Hi,

I scored this off one of the Tab Sites some time back, but I find it works really well for me.

Hope it helps ; )

Brett

Angie: The Rolling Stones

Angie:
Am Emaj7 G
e:-----0--0--0--0--3^0--------0-----------0-----------0----------------3-----|
B:-----1--1--1--1--1-------1-----------0-----0-----0-----1----------3-----3--|
G:-----2--2--2--2--2----2-----------1-----------1--1-------------4-----------|
D:-----2--2--2--2--2-------------------------------2----------5--------------|
A:!12!------------------------------------------------------5----------------|
E:-------------------------------0-------------------------------------------|
F Em7 Am
e:---------1--1--1-----------1--------0-----0----------------------0--0--0--0|
B:---------1--1-----1--------------------------1--------0-----0^1--1--1------|
G:4--------3--2-----------2--------0-----------------------0--2----2--2------|
D:---5-----3--3--------3--------2--------------------0--------2----2--2------|
A:------5--------------------------------3--------2-----------0--------------|
E:---------------------------------------------------------------------------|
"Angie..."
e:--0--0--0--0--0--------------------------------------------|
B:-----------------3--1--------------------------------------|
G:-----------------------------------------------------------|
D:-----------------------------------------------------------|
A:-----------------------------------------------------------|
E:-----------------------------------------------------------|
(repeats and alters during the song)

The Words:
Am E7
Angie...Angie
G F E7 Am
When will those clouds all disappear
Am E7
Angie...Angie
G F E7 Am
Where will it lead us from here
G
With no loving in our souls
Dm Am
and no money in our coats
C F G
You can't say we're satisfied
Am E7
Angie...Angie
G F Em7 Am
You can't say we never tried
Am E7
Angie...you're beautiful..yeah
G F Em7 Am
but aint it time we said goodbye
Am E7
Angie, I still love you
G F Em7 Am
Remember all those nights we cried
G
All the dreams we held so close
Dm Am
Seemed to all go up in smoke
C F G
Let me whisper in your ear
Am E7
Angie...Angie {whispered...[duh?]}
G F Em7 Am
Where will it lead us to here
{piano solo} [Do the Am, E7, G, F, Em7, Am thing]
G
Oh Angie don't you weep
Dm Am
All your kisses still taste sweet
C F G
I hate that sadness in your eyes
Am E7
but Angie....Angie
G F Em7 Am
Aint it time we said goodye...angie
{string} [Again with the Am, E7, G,F, Em7, Am thing]
G
With no loving in our souls
Dm Am
And no money in our coats
C F G
You can't say we're satisifed
Dm Am
But Angie, I still love you baby
Dm Am
Everywhere I look, I see your eyes
Dm Am
There aint a woman that comes close to you
C F G
Come on baby dry your eyes
Am E7
Angie...Angie
G F Em7 Am
Aint it good to be alive
Am E7
Angie...Angie
G F Em7 Am
They can't say we never tried


   
ReplyQuote
 Bull
(@bull)
Trusted Member
Joined: 21 years ago
Posts: 72
 

When you paste in the file- click on the code button up in the top menu. It will help hold the file format.
Hope this helps- Bull

Except when the lines are too long- I have tried to make the font smaller in the code window, but had a hard time. Anyone have the trick to change font size in the code window? The upper font button did nothing for me.



Angie:
Am Emaj7 G
e:-----0--0--0--0--3^0--------0-----------0-----------0----------------3-----|
B:-----1--1--1--1--1-------1-----------0-----0-----0-----1----------3-----3--|
G:-----2--2--2--2--2----2-----------1-----------1--1-------------4-----------|
D:-----2--2--2--2--2-------------------------------2----------5--------------|
A:!12!------------------------------------------------------5----------------|
E:-------------------------------0-------------------------------------------|
F Em7 Am
e:---------1--1--1-----------1--------0-----0----------------------0--0--0--0|
B:---------1--1-----1--------------------------1--------0-----0^1--1--1------|
G:4--------3--2-----------2--------0-----------------------0--2----2--2------|
D:---5-----3--3--------3--------2--------------------0--------2----2--2------|
A:------5--------------------------------3--------2-----------0--------------|
E:---------------------------------------------------------------------------|
"Angie..."
e:--0--0--0--0--0--------------------------------------------|
B:-----------------3--1--------------------------------------|
G:-----------------------------------------------------------|
D:-----------------------------------------------------------|
A:-----------------------------------------------------------|
E:-----------------------------------------------------------|
(repeats and alters during the song)


   
ReplyQuote