Close
Skip to content

Forum

Shake it for me (Co...
 
Notifications
Clear all

Shake it for me (Country Girl) Luke Bryan


(@cheesehead54)
Eminent Member
Joined: 14 years ago
Posts: 37
Topic starter  

I really don't know how to post songs, but I can tell you this song is easy and it rocks. It is E,G, and A. The whole song.

What happened to this site? There used to be new songs daily. Now it is so far between. Maybe there are too many people like myself that read but don't contribute. I will try to remedy that situation.


Quote
(@kent_eh)
Noble Member
Joined: 16 years ago
Posts: 1885
 

Well, there are almost a thousand songs here. Good, easy, guitar-centric songs that are fun to play aren't written every day (these days).

Anyway, thanks for bring this song to everyone's attention. Many of the posts are collaborative efforts.

And, to that end, Here's the intro as found on a tab site.
Intro:

e---------------------------------------------------------|
B---------------------------------------------------------|
G---------------------------------------------------------|
D-0h2--0h2-2h4-0h2--0h2-2h4h2-0h2--------------------4-2--|
A---------------------------------0h2-2-0h2-2--0h2-2------|
E---------------------------------------------------------|

e---------------------------------------------------------|
B---------------------------------------------------------|
G---------------------------------------------------------|
D-0h2--0h2-2h4h2-0h2--0h2-2h4h2-0h2-----22-2-2------------|
A-----------------------------------0h2-22-2-2------------|
E---------------------------------------------------------|

I wrapped a newspaper ’round my head
So I looked like I was deep


ReplyQuote
(@cheesehead54)
Eminent Member
Joined: 14 years ago
Posts: 37
Topic starter  

Thanks for posting the intro. Good easy song..


ReplyQuote