Skip to content
Stone Sour - Throug...
 
Notifications
Clear all

Stone Sour - Through Glass

1 Posts
1 Users
0 Reactions
384 Views
(@redneckrocker)
Estimable Member
Joined: 19 years ago
Posts: 174
Topic starter  

This is a really cool, really easy song to play.

Note: I stole this tab from http://www.ultimate-guitar.com , all credit should be given to some guy called Imnotbad.



Through The Glass Tab by Stone Sour, www.Ultimate-Guitar.Com

Artist: Stone Sour
Song: Through The Glass
Tab by: Imnotbad
Tuning: Eb,Ab,Db,Gb,Bb,Eb (half step down)

Repeat this part on the first chorus
e|----------------------------------------------|
B|-----0-------0--------------------------------|
G|---0-------0-----------0-------------0--------|
D|---------------------2----2--------2----2-----|
A|-3-------5---------2-------2----2--------2----|
E|-----------------0-------------0--------------|

Chorus #1:
I'm looking at you through the glass
Don't know how much time has passed
Oh God it feels like forever
But no one ever tells you that forever
Feels like I'm sitting all alone inside your head

Repeat this part on the first verse, the second chorus and the second verse
e|--------------------------------------------------|
B|----0----0------0----0------0----0------0----0----|
G|----0----0------0----0------0----0------0----0----|
D|-5--5-55-5---7--7-77-7---9--9-99-9---9--9-99-9----|
A|-3--3-33-3---5--5-55-5---7--7-77-7---7--7-77-7----|
E|--------------------------------------------------|

Verse #1:
How do you feel, that is the question
But I forget, you don't expect an easy answer
When something like a soul becomes initialized
Folded up like paper dolls and little notes
You can't expect a bit of hope
And while you're outside looking in
Describing what you see
Remember what you're staring at is me

Chorus #2:
'Cause I'm looking at you through the glass
Don't know how much time has passed
All I know is that it feels like forever
When no one ever tells you that forever
Feels like home, sitting all alone inside your head

Verse #2:
How much is real, so much to question
An Epidemic of the mannequins
Contaminating everything
When thought came from the heart
It never did right from the start
Just listen to the noises
(No more sad voices)
Before you tell yourself
It's just a different scene
Remembering is just different from what you've seen

Reapeat this part on the third chorus
e|-----------------------------------------------------------------|
B|-----------------------------------------------------------------|
G|-5--55--5-5-55---7--77--7-7-77---9--99--9-9-99---9--99--9-9-99---|
D|-5--55--5-5-55---7--77--7-7-77---9--99--9-9-99---9--99--9-9-99---|
A|-3--33--3-3-33---5--55--5-5-55---7--77--7-7-77---7--77--7-7-77---|
E|-----------------------------------------------------------------|

Chorus #3:
I'm looking at you through the glass
Don't know how much time has passed
And all I know is that it feels like forever
When no one ever tells you that forever
Feels like home, sitting all alone inside your head

Repeat this part on the first bridge
e|---------------------------------0--00--0-0-00---0--00--0-0-00-----|
B|---------------------------------0--00--0-0-00---0--00--0-0-00-----|
G|-5--55--5-5-55---7--77--7-7-77---0--00--0-0-00---0--00--0-0-00-----|
D|-5--55--5-5-55---7--77--7-7-77---2--22--2-2-22---2--22--2-2-22-----|
A|-3--33--3-3-33---5--55--5-5-55---2--22--2-2-22---2--22--2-2-22-----|
E|---------------------------------0--00--0-0-00---0--00--0-0-00-----|

Bridge #1:
And it's the stars
The stars that shine for you
And it's the stars
The stars that lie to you

Reapeat this part on the fourth chorus
e|-------------------------------------------------------------------------|
B|-------------------------------------------------------------------------|
G|-5--------------7--------------------0-------------0------------0--------|
D|-5--------------7------------------2----2--------2---2--------2----2-----|
A|-3--------------5----------------2-------2----2-------2-----2-------2----|
E|-------------------------------0-------------0------------0--------------|

e|----------------------------------------------|
B|-----0-------0--------------------------------|
G|---0-------0-----------0-------------0--------|
D|---------------------2----2--------2----2-----|
A|-3-------5---------2-------2----2--------2----|
E|-----------------0-------------0--------------|

And turn on palm mute at the end of it
e|-----------------------------------------------------------------|
B|-----------------------------------------------------------------|
G|-5-5-5-5-5-5-5-5-7-7-7-7-7-7-7-7---------------------------------|
D|-5-5-5-5-5-5-5-5-7-7-7-7-7-7-7-7-2-2-2-2-2-2-2-2-2-2-2-2-2-2-2-2-|
A|-3-3-3-3-3-3-3-3-5-5-5-5-5-5-5-5-2-2-2-2-2-2-2-2-2-2-2-2-2-2-2-2-|
E|---------------------------------0-0-0-0-0-0-0-0-0-0-0-0-0-0-0-0-|

Chorus #4:
'Cause I'm looking at you through the glass
Don't know how much time has passed
All I know is that it feels like forever
But no one ever tells you that forever
Feels like home, sitting all alone inside your head

And finaly, reapeat this part on the second bridge (x2)
e|---------------------------------0--00--0-0-00---0--00--0-0-00-----|
B|---------------------------------0--00--0-0-00---0--00--0-0-00-----|
G|-5--55--5-5-55---7--77--7-7-77---0--00--0-0-00---0--00--0-0-00-----|
D|-5--55--5-5-55---7--77--7-7-77---2--22--2-2-22---2--22--2-2-22-----|
A|-3--33--3-3-33---5--55--5-5-55---2--22--2-2-22---2--22--2-2-22-----|
E|---------------------------------0--00--0-0-00---0--00--0-0-00-----|

Bridge #2 (x2):
And it's the stars
The stars that shine for you
And it's the stars
The stars that lie to you

Then finish with a:
e|-0-----|
B|-0-----|
G|-0-----|
D|-2-----|
A|-2-----|
E|-0-----|

~Mike the Redneck Rocker.

"The only two things in life that make it worth living are guitars that tune good and firm feeling women" - Waylon


   
Quote