Skip to content
The Godfather Love ...
 
Notifications
Clear all

The Godfather Love Theme

1 Posts
1 Users
0 Likes
427 Views
(@boxboy)
Noble Member
Joined: 18 years ago
Posts: 1221
Topic starter  

Well, I poke around this forum on a regular basis and I have David Hodge lessons and mp3 files coming out the wazoo, so it's time to give back. Admittedly, in a meagre way: one of my all time favourite melodies, The Love Theme from The Godfather. This is a melody only version I cobbled together and fixed with incorrect versions I found on the net; afraid I'm not versed enough in tablature or music theory to assign a key (though I think it's A minor) or time signature and the vertical lines that represent the measures are squirrelly...hopefully it's familiar enough that things fall into place for you. For you (like me) newbies, it's played down at the nut with very little repositioning of your fretting hand...A sincere thanks to the numerous people who have made this site so fantastic; cheers to you all:-)
e:-----------------|------------------|---------------|---------------------|
B:------1--0-----1-|----0-------------|------1--0---1-|------0--------------|
G:---2--------2----|-2-----2-----0----|----2- ----2---|----2-----2----------|
D:2----------------|----------3-----2-|-2-------------|-------------3--2--0-|
A:-----------------|------------------|---------------|---------------------|
E:-----------------|------------------|---------------|---------------------|

e:-------------|------------|---------------------|-----------------|
B:-----------0-|------------|---------------------|-----------------|
G:--------2----|-------1--2-|-------0--------0----|----------- -----|
D:--0--3-------|-0--3-------|----------3--2-------|-3--3--2--2------|
A:-------------|------------|-0--3----------------|-- --------------|
E:-------------|------------|---------------------|------------4--5-|

e:--------------------|---------------|---------------------|---------------|
B:--------------------|-0-------------|---------------------|---------------|
G:2----2----1---0-----|----2----------|-----0---------------|---------------|
D:--------------------|-------3-----2-|-2-----2---0---------|-0---3---1--2--|
A:--------------------|---------------|---------------------|---------------|
E:--------------------|---------------|---------------------|---------------|

e:-----------------|------------------|---------------|---------------------|
B:------1--0-----1-|----0-------------|------1--0---1-|------0--------------|
G:---2--------2----|-2-----2-----0----|----2- ----2---|----2-----2----------|
D:2----------------|----------3-----2-|-2-------------|-------------3--2--0-|
A:-----------------|------------------|---------------|---------------------|
E:-----------------|------------------|---------------|---------------------|

e:-------------|------------|---------------------|-----------------|
B:-----------0-|------------|---------------------|---------------1-|
G:--------2----|-------1--2-|-------0--------0----|------------1--2-|
D:--0--3-------|-0--3-------|----------3--2-------|-3--3--2--2----2-|
A:-------------|------------|-0--3----------------|-- --------------|
E:-------------|------------|---------------------|-----------------|

Don


   
Quote