Skip to content
Unknown Legend - Ne...
 
Notifications
Clear all

Unknown Legend - Neil Young

2 Posts
2 Users
0 Reactions
485 Views
(@dogsbody)
Prominent Member
Joined: 20 years ago
Posts: 715
Topic starter  

I can't stop, Yep "Harvest Moon" is on the CPU headphones are in. I'm in Neil Young heaven. This album is really the acoustic guitar player's dream.

Here's "Unknown Legend" track one on the CD and ONLY two chords plus an easy tab intro:


Intro:

E|---------------------------------------------------
B|---------------------------------------------------
G|---------------------------------------------------
D|--------0---------0---------0-------------------0--
A|---2-3-------3-2-------2-3-------3-2---------------
E|--------------------------------------0----0-3-----
G|-----> C G

(G)She used to work in a diner

(G)Never saw a woman look finer

(G)I used to order just to watch her float across the (C)floor

She grew up in a (G)small town

(G)Never put her roots down

(G)Daddy always kept movin' so she did too

(G)Somewhere on a (C)desert (G)highway

She rides a (C)Harley-(G)Davidson

(G)Her long blond hair flyin' in the (C)wind

She's been runnin' (C)half her (G)life

The chrome and (C)steel she (G)rides

Collidin' with the very air she (C)breathes

The air she (G)breathes

The air she (G)breathes

Repeat intro:

E|---------------------------------------------------
B|---------------------------------------------------
G|---------------------------------------------------
D|--------0---------0---------0-------------------0--
A|---2-3-------3-2-------2-3-------3-2---------------
E|--------------------------------------0----0-3-----
G|-----> C G

(G)You know it ain't easy

(G)You got to (C)hold (G)on

(G)She was an unknown legend in her (C)time

Now she's dressing two (G)kids

Lookin' for a magic (G)kiss

(G)She gets the far-away look in her eyes

(G)Somewhere on a (C)desert (G)highway

She rides a (C)Harley-(G)Davidson

(G)Her long blond hair flyin' in the (C)wind

She's been runnin' (C)half her (G)life

The chrome and (C)steel she (G)rides

Collidin' with the very air she (C)breathes

The air she (G)breathes

The air she (G)breathes

Fill:

(G) (C) (G)

(G)Somewhere on a (C)desert (G)highway

She rides a (C)Harley-(G)Davidson

(G)Her long blond hair flyin' in the (C)wind

She's been runnin' (C)half her (G)life

The chrome and (C)steel she (G)rides

Collidin' with the very air she (C)breathes

The air she (G)breathes

The air she (G)breathes

Outro:

E|---------------------------------------------------
B|---------------------------------------------------
G|---------------------------------------------------
D|--------0---------0---------0-------------------0--
A|---2-3-------3-2-------2-3-------3-2---------------
E|--------------------------------------0----0-3-----

G|-----> C G

Enjoy

Chris

The guitar is all right John but you'll never make a living out of it! (John Lennon's Aunt Mimi)


   
Quote
(@dave-t)
Reputable Member
Joined: 19 years ago
Posts: 239
 

Thanks a lot. I've been playing it with a B du B du pattern on each chord and it works fine.


   
ReplyQuote