Skip to content

Forum

Youth of The Nation...
 
Notifications
Clear all

Youth of The Nation - P.O.D.


(@javajark)
Active Member
Joined: 18 years ago
Posts: 17
Topic starter  

Can't get much easier than this. this is a cool song to play. you want to use an echo effect or some heavy reverb will be ok.


Tune to drop D and then tune all the strings down 1 step
CGCFAD

Intro: (with Delay) !!Play slow!!
d----------------------
a----------------------
f------------0---------
C----------------5--3-0
G----------------------
C--0-(hold)-3----------

Verse: (Delay) !!Play Slow!!
d-------------------
a-------------------
f------2---0--------
C----0--------5-3-0- x4
G-------------------
C--0------3---------

d----10--12-13----10-----
f--10-----------10-------
a------------------------
C---------------------10-
G------------------------
C------------------------

Chorus: (with Delay)
d--------------------
a--------------------
f--------------------
C-------------5--3-0-
G--------------------
C--0-(hold)-3--------

Bridge: (with Distortion)
d--------------------------------------
a----5-6--5-6--8--8p6p5--5h6p5---5-----
f--7---------------------------7----7-5
C-------------------------------------- x2
G--------------------------------------
C--------------------------------------

The bridges that I walk across are weak. Frustrations fill the void that I can’t solely bear.
And I have turned away and searched for answers I can’t understand...


Quote