Skip to content
Saints go Marching ...
 
Notifications
Clear all

Saints go Marching In

1 Posts
1 Users
0 Likes
470 Views
(@deadat27)
Trusted Member
Joined: 19 years ago
Posts: 55
Topic starter  

For those of you who are really, really new to tablature here is a song that really helped me get the hang of it. It's a classic blues song that many of us have heard in school. No fancy bending or tuning techniques are needed and you only use the bottom 2 strings.

e-------0-----1------3-------------3------------0-----1-------3---
B---1------------------------------------1--------------------------

e--------0----1----3--------0---------------0------------------------
B---1-------------------------------1-------------------3-------------

e--------0-----------------------------0----------3---------3-----1----
B--------------3-------1----------1------------------------------------

e------1-----0-----1-----3--------0----------------------------------
B--------------------------------------------1------3-------1--------

I hope it came out right, there's more too it but for true beginners this should be it for now.


   
Quote