Skip to content
Notifications
Clear all

Help Me

1 Posts
1 Users
0 Likes
593 Views
(@riff-raff)
Reputable Member
Joined: 18 years ago
Posts: 371
Topic starter  

I'm trying to figure out some new blues rhythm techniques besides the standard shuffle pattern. I was listening to Sonny Boy Williamson's "Help Me" and I tabbed out the following. Do you think it works? Any suggestions?

Thanks,
David

E|---------------------------------|---------------------------------|---------------------------------|
B|---------------------------------|---------------------------------|---------------------------------|
G|---------------------------------|---------------------------------|---------------------------------|
D|---------------------------------|---------------------------------|---------------------------------|
A|-2---2---2---2---5---5---7---7---|-2---2---2---2---5---5---7---7---|-2---2---2---2---5---5---7---7---|
E|-0---0---0---0---3---3---5---5---|-0---0---0---0---3---3---5---5---|-0---0---0---0---3---3---5---5---|

E|---------------------------------|---------------------------------|---------------------------------|
B|---------------------------------|---------------------------------|---------------------------------|
G|---------------------------------|---------------------------------|---------------------------------|
D|---------------------------------|-2---2---2---2---5---5---7---7---|-2---2---2---2---5---5---7---7---|
A|-2---2---2---2---5---5---7---7---|-0---0---0---0---3---3---5---5---|-0---0---0---0---3---3---5---5---|
E|-0---0---0---0---3---3---5---5---|---------------------------------|---------------------------------|

E|---------------------------------|---------------------------------|---------------------------------|
B|---------------------------------|---------------------------------|---------------------------------|
G|---------------------------------|---------------------------------|---------------------------------|
D|---------------------------------|---------------------------------|-4---4---4---4---7---7---9---9---|
A|-2---2---2---2---5---5---7---7---|-2---2---2---2---5---5---7---7---|-2---2---2---2---5---5---7---7---|
E|-0---0---0---0---3---3---5---5---|-0---0---0---0---3---3---5---5---|---------------------------------|

E|---------------------------------|---------------------------------|---------------------------------|
B|---------------------------------|---------------------------------|---------------------------------|
G|---------------------------------|---------------------------------|---------------------------------|
D|-2---2---2---2---5---5---7---7---|---------------------------------|---------------------------------|
A|-0---0---0---0---3---3---5---5---|-2---2---2---2---5---5---7---7---|-2---2---2---2---5---5---7---7---|
E|---------------------------------|-0---0---0---0---3---3---5---5---|-0---0---0---0---3---3---5---5---|


   
Quote