Skip to content
Notifications
Clear all

The Blues

6 Posts
6 Users
0 Likes
1,378 Views
markthechuck
(@markthechuck)
Reputable Member
Joined: 15 years ago
Posts: 169
Topic starter  

Anyone got any nice Blues licks they'd like to pass on to a fellow player? 8)

A knock back is the beginning of a comeback!!!


   
Quote
jwmartin
(@jwmartin)
Noble Member
Joined: 16 years ago
Posts: 1435
 

One of my favorites (and you hear quite often) is in the 1st position of minor pentatonic (tabbed as if you are in key of E)

e|-------------------------|
B|------3------------------|
G|--2/4---4p2p0------------|
D|-------------------------|
A|-------------------------|
E|-------------------------|

I use ring finger on 2nd fret, slide to 4th (putting my index finger on 2nd fret at the same time), middle finger on 3rd fret on B string. Then pick off ring and index finger.

Bass player for Undercover


   
ReplyQuote
Dommy09
(@dommy09)
Trusted Member
Joined: 15 years ago
Posts: 74
 

Tabbed in key of A pentatonic (of course works for all keys) one of these little licks always seems to make it into my improvs...
Pretty basic but as part of a solo it works
e |-----------------------------------------------------------------|
B |-------------5---------5---------5--------------------------------|
G |-------7^--------7^-------7^-----------------etc------- --------|
D |-------------------------------------------------------------------|
A |-------------------------------------------------------------------|
E |-------------------------------------------------------------------|

Its a nice little 'tension builder' , its up to you where you take it from there. Just screw around with it.

Dom

"We all have always shared a common belief that music is meant to be played as loud as possible, really raw and raunchy, and I'll punch out anyone who doesn't like it the way I do." -Bon Scott


   
ReplyQuote
Scrybe
(@scrybe)
Famed Member
Joined: 15 years ago
Posts: 2241
 

it isn't a lick, but watch as much youtube as you can of guys like Luther Allison, Albert Collins, SRV, B B King, Magic Sam, etc. There's an attitude in soloing that is very blues. A commanding presence that can't be feigned. Get that down, and you'll be one hell of a blues player. Miss it, and you'll be a rock player using some blues licks.

Ra Er Ga.

Ninjazz have SuperChops.

http://www.blipfoto.com/Scrybe


   
ReplyQuote
dogbite
(@dogbite)
Illustrious Member
Joined: 17 years ago
Posts: 6348
 

got to love the youtube.
search for Buddy Guy. he has a series of blues licks. he shows you his fingers and where they go. really good stuff.

http://www.soundclick.com/bands/pagemusic.cfm?bandID=644552
http://www.soundclick.com/couleerockinvaders


   
ReplyQuote
Rahul
(@rahul)
Famed Member
Joined: 17 years ago
Posts: 2736
 

I have got to give you only 12 bar blues.


   
ReplyQuote