Skip to content
Notifications
Clear all

My first track

9 Posts
7 Users
0 Likes
1,550 Views
yournightmare
(@yournightmare)
Posts: 108
Estimable Member
Topic starter
 

Here's the first track I've ever done. I've been playing for about a year. This is one of the easier songs I can play, but I really like it so I decided to use it for my first track. It's called "Bagetelle" and it's by Ferdinando Carulli.

I played a drum loop and listened it to through headphones then recorded the guitar track. Then I imported the guitar track into Acid and added percussion.

I posted this in the Beginner's forum first, since I'm still a beginner, but it was recommended to me to post it here instead.

http://www.box.net/shared/f2zbi6764h

 
Posted : 30/07/2007 8:20 pm
pearlthekat
(@pearlthekat)
Posts: 1468
Noble Member
 

it sounds real good. the drums work very well in it. how long did it take you to be able to play the piece?

 
Posted : 30/07/2007 9:40 pm
yournightmare
(@yournightmare)
Posts: 108
Estimable Member
Topic starter
 

how long did it take you to be able to play the piece? About an hour or so. It's very easy.

Here's a link to the .pdf of the guitar part in TAB and standard notation: http://www.box.net/shared/sbagfglc6m

Bagatelle

Ferdinando Carulli
Track 1


E E E E E E E E E E E E E E E E
E||--------------------------|--------------------------|
B||--0-----0-----1-----1-----|--0-----1--0--------3-----|
G||--0-----0-----2-----2-----|--0-----------2-----------|
D||-----0-----0-----0-----0--|-----0-----------0-----0--|
A||--------------------------|--------------------------|
E||--------------------------|--------------------------|

E E E E E E E E E E E E H
--------------------------|------------------------||
--0-----0-----1-----1-----|--0-----1---------------||
--0-----0-----2-----2-----|--0--------2--0--------*||
-----0-----0-----0-----0--|-----0-----------------*||
--------------------------|------------------------||
--------------------------|--------------3---------||

E E E E E E E E E E E E E E E E
---2-----2-----3-----------|--------0-----------------|
---1-----1-----0-----0-----|--1--------3--0-----------|
*--------------------0-----|--2-----------------0-----|
*-----0-----0-----0-----0--|-----0-----------0-----0--|
---------------------------|--------------------------|
---------------------------|--------------------------|

E E E E E E E E E E E E H
--2-----2-----3-----------|--------0---------------||
--1-----1-----0-----0-----|--1--------3--0---------||
--------------------0-----|--2-----------0--------*||
-----0-----0-----0-----0--|-----0-----------------*||
--------------------------|------------------------||
--------------------------|--------------3---------||

E E E E E E E E E E E E E E E E
------------0-----------0--|-----2-----2-----3-----0--|
---------0-----------0-----|-----0-----0-----0-----0--|
*-----0-----------0--------|--------------------------|
*--2-----------2-----------|--1-----1-----2-----2-----|
---------------------------|--------------------------|
---------------------------|--------------------------|

E E E E E E E E E E E E H
-----------0-----------0--|-----2-----2--0---------||
--------0-----------0-----|-----0-----0--0---------||
-----0-----------0--------|--------------0--------*||
--2-----------2-----------|--1-----1-----2--------*||
--------------------------|------------------------||
--------------------------|------------------------||

E E E E E E E E E E E E E E E E
---------------------------|-----2-----2-----3-----0--|
------0-----0-----0-----0--|-----0-----0-----0-----0--|
*--2-----2-----0-----------|--------------------------|
*--------------------2-----|--1-----1-----2-----2-----|
---------------------------|--------------------------|
---------------------------|--------------------------|

E E E E E E E E
--------------------------|
-----0-----0-----0-----0--|
--2-----2-----0-----------|
--------------------2-----|
--------------------------|
--------------------------|

Then Repeat Bars 1 to 8 ONCE ONLY (No Repeats)
E E E E H
-----2-----2--0-----------------------------------------------||-----------|
-----0-----0--0-----------------------------------------------||-----------|
--------------0----------------------------------------------*||-----------|
--1-----1-----2----------------------------------------------*||-----------|
--------------------------------------------------------------||-----------|
--------------------------------------------------------------||-----------|

-----------||
-----------||
-----------||
-----------||
-----------||
-----------||

 
Posted : 30/07/2007 9:49 pm
Nuno
 Nuno
(@nuno)
Posts: 3995
Famed Member
 

Nice playing! You play in time and the drums give a different flavor to the classical piece.

Congrats! :D

 
Posted : 30/07/2007 10:51 pm
dogbite
(@dogbite)
Posts: 6348
Illustrious Member
 

one year...that is very good. I liked the bass line that goes with the piece. you did that really well.
I see inthe Tabs an open string and fretted strings are used. that syncopation was always hard for me.
I am impressed.
are you the guy who posted in another section of this forum?
good to see you here.
your downloads work perfect.
see you around I hope.

http://www.soundclick.com/bands/pagemusic.cfm?bandID=644552
http://www.soundclick.com/couleerockinvaders

 
Posted : 30/07/2007 11:24 pm
smokindog
(@smokindog)
Posts: 5345
Illustrious Member
 

Very Good. That sounds nice with the drum track. Good tone and your playing sounds very natural...good job :D

My Youtube Page
http://www.youtube.com/user/smokindog
http://www.soundclick.com/smokindogandthebluezers

http://www.soundclick.com/guitarforumjams

 
Posted : 31/07/2007 1:57 am
tree
 tree
(@tree)
Posts: 55
Trusted Member
 

very nice piece.
nice guitar work and the drums add a nice feel to it
keep it up!

so many places that are hard to see
so many places that aren't
so many places we want to be
so many times we are not

 
Posted : 31/07/2007 4:26 am
yournightmare
(@yournightmare)
Posts: 108
Estimable Member
Topic starter
 

Thanks for compliments!

 
Posted : 31/07/2007 11:03 pm
Bish
 Bish
(@bish)
Posts: 3636
Famed Member
 

WOW, that really was nicely played.

Congrats on a successful first recording track.

Hehe, nice drum outro. :wink:

Bish

"I play live as playing dead is harder than it sounds!"

 
Posted : 01/08/2007 11:27 am