Skip to content
And I Love Her - Be...
 
Notifications
Clear all

And I Love Her - Beatles

5 Posts
3 Users
0 Likes
729 Views
 shug
(@shug)
Reputable Member
Joined: 18 years ago
Posts: 168
Topic starter  

A combination of several tabbed versions on the internet. Although alternatives exist for playing the notes up and down the neck, this version produces the tone, and ease of switching to other chords and notes, that I prefer. :D Fingerings of notes have been included, and tab has been sized to fit (barely) onto two open-face printed pages, if desired.

Intro: By fingering first two notes with ring & pinky (p) as indicated, one can easily slide up to form an F#m.

Bar Chords:

Not as intimidating as it may first appear. The F#m is, perhaps, the easisest of all bar chords. Move it up two frets and you have your G#m.

Much of the song is "toggling" back and forth from an F#m to a C#m. Many songs include a Bm, so this is a good bar chord to learn, and a C#m is simply a barred Bm moved up two frets.

If the B chord makes you break out in a sweat, a B7 will do nicely instead. Similarly, an F chord can replace the F6 (but doesn't sound as good).

An open A chord can be used in place of a barred A chord, and in a pinch, the Bb can be fingered as (xx0331) until the barred version is mastered.

Chords:

F#m: 244222
E6: 022120
C#m: 446654
A: 577655
B: 224442
B7: 021202
G#m: 466444
F6: 13x231
Bb: 113331

Notes in Verses:

F#m (11-10-9): r-m-i
C#m (9-9-9): barr i
A (9-10-9): open D chord shape
B7 (11-10-11): open D7 shape

There, now you can play this beautiful song Paul wrote for Jane Asher.

And I Love Her - The Beatles

Intro:
F#m E6 F#m
e|---------------------------------------------------|
B|---------------------------------------------------|
G|---------------------------------------------------|
D|------2--1------------2--1------------2--1---------|
A|---2--------4------2--------2------2--------4------|
E|---------------------------------------------------|
r p m r r p m r m r i r (fret hand)

Verse 1:

F#m C#m F#m C#m
I give her all my love That's all I do
F#m C#m A B7
And if you saw my love You'd love her too
E6
And I love her

Verse 2:

F#m C#m
e|----------9--------------9------------9-----------9-----|
B|------10-----10------10-----10-----9-----9-----9-----9--|
G|--11-------------11-------------9-----------9-----------|
D|--------------------------------------------------------|
A|--------------------------------------------------------|
E|--------------------------------------------------------|
She gives me every thing

F#m C#m
e|----------9--------------9------------9-----------9------|
B|------10-----10------10-----10-----9-----9-----9-----9---|
G|--11-------------11-------------9-----------9------------|
D|---------------------------------------------------------|
A|---------------------------------------------------------|
E|---------------------------------------------------------|
And tender ly

F#m C#m
e|----------9--------------9------------9-----------9------|
B|------10-----10------10-----10-----9-----9-----9-----9---|
G|--11-------------11-------------9-----------9------------|
D|---------------------------------------------------------|
A|---------------------------------------------------------|
E|---------------------------------------------------------|
The kiss my lover brings

A B7
e|---------9-------------9--------------11-----------------|
B|-----10-----10-----10-----10------10------10-------------|
G|--9-------------9-------------11-------------------------|
D|---------------------------------------------------------|
A|---------------------------------------------------------|
E|---------------------------------------------------------|
She brings to me

E6
e|----------11------------9-----------9-----------9--------|
B|------10------10-----9-----9-----9-----9-----9-----9-----|
G|--11--------------9-----------9-----------9-----------9--|
D|---------------------------------------------------------|
A|---------------------------------------------------------|
E|---------------------------------------------------------|
And I love her

Middle:

C#m B C#m G#m
A love like ours could never die
C#m G#m B B7 D|-----2--1-----|
As long as I have you near me A|--2--------4--|
E|--------------|
m r i r
Verse 3: [Arpeggios same as verse 2, execept begin with "stars" (C#m)]

F#m C#m F#m C#m
Bright are the stars that shine Dark is the sky
F#m C#m A B
I know this love of mine Will never die
E6
And I love her

Guitar Solo:

Gm Dm Gm Dm Gm Dm
e|-------------------------------------------------------------|
B|-------------------------------------------------------------|
G|-----------9--7/10--------------9--97---------------9--7/10-|
D|--5--7--8--------------5--7--8--------------5--7--8----------|
A|-------------------------------------------------------------|
E|-------------------------------------------------------------|
i m r a m i m r a a i m r a m
Bb C7 F6 Gm
e|------------------------------------------------------------|
B|------------------------------------------------------------|
G|--10--7-----------------------------------------------------|
D|---------8--7--75--------------5/7-------------------------|
A|-----------------------5--3--5--------3---0-----------------|
E|---------------------------------------------3--1--1/3------|
m i m i i r i r r r 0 r i i

Verse 4: (guitar plays arpeggios shown for verse 2, one fret higher)

Gm Dm Gm Dm
Bright are the stars that shine Dark is the sky
Gm Dm Bb C7
I know this love of mine Will never die
F6
And I love her

Ending:
Gm F6 Gm D
e|---------------------------------------------------------------|
B|---------------------------------------------------------------|
G|---------------------------------------------------------------|
D|------3--2------------3--2------------3--2-----------3--2--0---|
A|---3--------5------3--------3------3--------5-----3--------0---|
E|---------------------------------------------------------------|

"Music hath charms to soothe a savage breast, to soften rocks, or bend a knotted oak."


   
Quote
(@dan-t)
Illustrious Member
Joined: 20 years ago
Posts: 5044
 

Hey Shug! Where ya been buddy! :D Great song, thanks alot. 8)

See you around,
Dan

"The only way I know that guarantees no mistakes is not to play and that's simply not an option". David Hodge


   
ReplyQuote
(@rodders)
Noble Member
Joined: 20 years ago
Posts: 1086
 

First class job there Shug !!! :wink:

Love the solo

Thanks.

Rod.

Be excellent to each other & party on dudes!
http://www.soundclick.com/bands/pagemusic.cfm?bandID=686668


   
ReplyQuote
 shug
(@shug)
Reputable Member
Joined: 18 years ago
Posts: 168
Topic starter  

Hey Shug! Where ya been buddy! :D Great song, thanks alot. 8)

See you around,
Dan

Thanks. The mundane parts of "life", got in the way . . . but I'm glad to be back on my favorite guitar site on the internet. Shug

"Music hath charms to soothe a savage breast, to soften rocks, or bend a knotted oak."


   
ReplyQuote
 shug
(@shug)
Reputable Member
Joined: 18 years ago
Posts: 168
Topic starter  

After playing this several times, I have edited the original tab to change a note (and fingerings) in the Intro and Ending and changed the E chord in the body to an E6 (022120).

"Music hath charms to soothe a savage breast, to soften rocks, or bend a knotted oak."


   
ReplyQuote